  0
SECTION
  2
HEADER
  9
$ACADVER
  1
AC1015
  9
$ACADMAINTVER
 70
     6
  9
$DWGCODEPAGE
  3
ANSI_1254
  9
$INSBASE
 10
0.0
 20
0.0
 30
0.0
  9
$EXTMIN
 10
0.0
 20
0.0
 30
0.0
  9
$EXTMAX
 10
279.4
 20
215.9
 30
0.0
  9
$LIMMIN
 10
0.0
 20
0.0
  9
$LIMMAX
 10
279.4
 20
215.9
  9
$ORTHOMODE
 70
     0
  9
$REGENMODE
 70
     1
  9
$FILLMODE
 70
     1
  9
$QTEXTMODE
 70
     0
  9
$MIRRTEXT
 70
     1
  9
$LTSCALE
 40
1.0
  9
$ATTMODE
 70
     1
  9
$TEXTSIZE
 40
3.5
  9
$TRACEWID
 40
1.0
  9
$TEXTSTYLE
  7
Standard
  9
$CLAYER
  8
0
  9
$CELTYPE
  6
ByLayer
  9
$CECOLOR
 62
   256
  9
$CELTSCALE
 40
1.0
  9
$DISPSILH
 70
     0
  9
$DIMSCALE
 40
1.0
  9
$DIMASZ
 40
3.5
  9
$DIMEXO
 40
1.0
  9
$DIMDLI
 40
3.75
  9
$DIMRND
 40
0.0
  9
$DIMDLE
 40
0.0
  9
$DIMEXE
 40
1.0
  9
$DIMTP
 40
0.0
  9
$DIMTM
 40
0.0
  9
$DIMTXT
 40
3.5
  9
$DIMCEN
 40
2.5
  9
$DIMTSZ
 40
0.0
  9
$DIMTOL
 70
     0
  9
$DIMLIM
 70
     0
  9
$DIMTIH
 70
     1
  9
$DIMTOH
 70
     1
  9
$DIMSE1
 70
     0
  9
$DIMSE2
 70
     0
  9
$DIMTAD
 70
     1
  9
$DIMZIN
 70
     0
  9
$DIMBLK
  1

  9
$DIMASO
 70
     1
  9
$DIMSHO
 70
     1
  9
$DIMPOST
  1

  9
$DIMAPOST
  1

  9
$DIMALT
 70
     0
  9
$DIMALTD
 70
     3
  9
$DIMALTF
 40
0.0393700787
  9
$DIMLFAC
 40
1.0
  9
$DIMTOFL
 70
     1
  9
$DIMTVP
 40
0.0
  9
$DIMTIX
 70
     0
  9
$DIMSOXD
 70
     0
  9
$DIMSAH
 70
     0
  9
$DIMBLK1
  1

  9
$DIMBLK2
  1

  9
$DIMSTYLE
  2
ISO-25
  9
$DIMCLRD
 70
     0
  9
$DIMCLRE
 70
     0
  9
$DIMCLRT
 70
     0
  9
$DIMTFAC
 40
1.0
  9
$DIMGAP
 40
1.524
  9
$DIMJUST
 70
     0
  9
$DIMSD1
 70
     0
  9
$DIMSD2
 70
     0
  9
$DIMTOLJ
 70
     0
  9
$DIMTZIN
 70
     0
  9
$DIMALTZ
 70
     0
  9
$DIMALTTZ
 70
     0
  9
$DIMUPT
 70
     0
  9
$DIMDEC
 70
     2
  9
$DIMTDEC
 70
     2
  9
$DIMALTU
 70
     2
  9
$DIMALTTD
 70
     3
  9
$DIMTXSTY
  7
Standard
  9
$DIMAUNIT
 70
     0
  9
$DIMADEC
 70
     2
  9
$DIMALTRND
 40
0.0
  9
$DIMAZIN
 70
     0
  9
$DIMDSEP
 70
    44
  9
$DIMATFIT
 70
     3
  9
$DIMFRAC
 70
     0
  9
$DIMLDRBLK
  1

  9
$DIMLUNIT
 70
     2
  9
$DIMLWD
 70
    -2
  9
$DIMLWE
 70
    -2
  9
$DIMTMOVE
 70
     0
  9
$LUNITS
 70
     2
  9
$LUPREC
 70
     2
  9
$SKETCHINC
 40
1.0
  9
$FILLETRAD
 40
10.0
  9
$AUNITS
 70
     0
  9
$AUPREC
 70
     2
  9
$MENU
  1
.
  9
$ELEVATION
 40
0.0
  9
$PELEVATION
 40
0.0
  9
$THICKNESS
 40
0.0
  9
$LIMCHECK
 70
     0
  9
$CHAMFERA
 40
0.0
  9
$CHAMFERB
 40
0.0
  9
$CHAMFERC
 40
0.0
  9
$CHAMFERD
 40
0.0
  9
$SKPOLY
 70
     0
  9
$TDCREATE
 40
2459741.591098472
  9
$TDUCREATE
 40
2459741.466098472
  9
$TDUPDATE
 40
2459741.591101944
  9
$TDUUPDATE
 40
2459741.466101944
  9
$TDINDWG
 40
0.0000000116
  9
$TDUSRTIMER
 40
0.0000000116
  9
$USRTIMER
 70
     1
  9
$ANGBASE
 50
0.0
  9
$ANGDIR
 70
     0
  9
$PDMODE
 70
     0
  9
$PDSIZE
 40
-1.0
  9
$PLINEWID
 40
0.0
  9
$SPLFRAME
 70
     0
  9
$SPLINETYPE
 70
     6
  9
$SPLINESEGS
 70
     8
  9
$HANDSEED
  5
268
  9
$SURFTAB1
 70
     6
  9
$SURFTAB2
 70
     6
  9
$SURFTYPE
 70
     6
  9
$SURFU
 70
     6
  9
$SURFV
 70
     6
  9
$UCSBASE
  2

  9
$UCSNAME
  2

  9
$UCSORG
 10
0.0
 20
0.0
 30
0.0
  9
$UCSXDIR
 10
1.0
 20
0.0
 30
0.0
  9
$UCSYDIR
 10
0.0
 20
1.0
 30
0.0
  9
$UCSORTHOREF
  2

  9
$UCSORTHOVIEW
 70
     0
  9
$UCSORGTOP
 10
0.0
 20
0.0
 30
0.0
  9
$UCSORGBOTTOM
 10
0.0
 20
0.0
 30
0.0
  9
$UCSORGLEFT
 10
0.0
 20
0.0
 30
0.0
  9
$UCSORGRIGHT
 10
0.0
 20
0.0
 30
0.0
  9
$UCSORGFRONT
 10
0.0
 20
0.0
 30
0.0
  9
$UCSORGBACK
 10
0.0
 20
0.0
 30
0.0
  9
$PUCSBASE
  2

  9
$PUCSNAME
  2

  9
$PUCSORG
 10
0.0
 20
0.0
 30
0.0
  9
$PUCSXDIR
 10
1.0
 20
0.0
 30
0.0
  9
$PUCSYDIR
 10
0.0
 20
1.0
 30
0.0
  9
$PUCSORTHOREF
  2

  9
$PUCSORTHOVIEW
 70
     0
  9
$PUCSORGTOP
 10
0.0
 20
0.0
 30
0.0
  9
$PUCSORGBOTTOM
 10
0.0
 20
0.0
 30
0.0
  9
$PUCSORGLEFT
 10
0.0
 20
0.0
 30
0.0
  9
$PUCSORGRIGHT
 10
0.0
 20
0.0
 30
0.0
  9
$PUCSORGFRONT
 10
0.0
 20
0.0
 30
0.0
  9
$PUCSORGBACK
 10
0.0
 20
0.0
 30
0.0
  9
$USERI1
 70
     0
  9
$USERI2
 70
     0
  9
$USERI3
 70
     0
  9
$USERI4
 70
     0
  9
$USERI5
 70
     0
  9
$USERR1
 40
0.0
  9
$USERR2
 40
0.0
  9
$USERR3
 40
0.0
  9
$USERR4
 40
0.0
  9
$USERR5
 40
0.0
  9
$WORLDVIEW
 70
     1
  9
$SHADEDGE
 70
     3
  9
$SHADEDIF
 70
    70
  9
$TILEMODE
 70
     1
  9
$MAXACTVP
 70
    64
  9
$PINSBASE
 10
0.0
 20
0.0
 30
0.0
  9
$PLIMCHECK
 70
     0
  9
$PEXTMIN
 10
1.0000000000E+20
 20
1.0000000000E+20
 30
1.0000000000E+20
  9
$PEXTMAX
 10
-1.0000000000E+20
 20
-1.0000000000E+20
 30
-1.0000000000E+20
  9
$PLIMMIN
 10
0.0
 20
0.0
  9
$PLIMMAX
 10
420.0
 20
297.0
  9
$UNITMODE
 70
     0
  9
$VISRETAIN
 70
     1
  9
$PLINEGEN
 70
     0
  9
$PSLTSCALE
 70
     1
  9
$TREEDEPTH
 70
  3020
  9
$CMLSTYLE
  2
Standard
  9
$CMLJUST
 70
     0
  9
$CMLSCALE
 40
20.0
  9
$PROXYGRAPHICS
 70
     1
  9
$MEASUREMENT
 70
     1
  9
$CELWEIGHT
370
    -1
  9
$ENDCAPS
280
     0
  9
$JOINSTYLE
280
     0
  9
$LWDISPLAY
290
     1
  9
$INSUNITS
 70
     4
  9
$HYPERLINKBASE
  1

  9
$STYLESHEET
  1

  9
$XEDIT
290
     1
  9
$CEPSNTYPE
380
     0
  9
$PSTYLEMODE
290
     1
  9
$FINGERPRINTGUID
  2
{39b69f52-0a35-47c0-ae59-8e1fe6e0995d}
  9
$VERSIONGUID
  2
{FAEB1C32-E019-11D5-929B-00C0DF256EC4}
  9
$EXTNAMES
290
     1
  9
$PSVPSCALE
 40
0.0
  9
$OLESTARTUP
290
     0
  0
ENDSEC
  0
SECTION
  2
CLASSES
  0
CLASS
  1
ACDBDICTIONARYWDFLT
  2
AcDbDictionaryWithDefault
  3
ObjectDBX Classes
 90
        0
280
     0
281
     0
  0
CLASS
  1
VISUALSTYLE
  2
AcDbVisualStyle
  3
ObjectDBX Classes
 90
     4095
280
     0
281
     0
  0
CLASS
  1
MATERIAL
  2
AcDbMaterial
  3
ObjectDBX Classes
 90
     1153
280
     0
281
     0
  0
CLASS
  1
SCALE
  2
AcDbScale
  3
ObjectDBX Classes
 90
     1153
280
     0
281
     0
  0
CLASS
  1
TABLESTYLE
  2
AcDbTableStyle
  3
ObjectDBX Classes
 90
     4095
280
     0
281
     0
  0
CLASS
  1
MLEADERSTYLE
  2
AcDbMLeaderStyle
  3
ACDB_MLEADERSTYLE_CLASS
 90
     4095
280
     0
281
     0
  0
CLASS
  1
SUN
  2
AcDbSun
  3
SCENEOE
 90
     1153
280
     0
281
     0
  0
CLASS
  1
ACDBPLACEHOLDER
  2
AcDbPlaceHolder
  3
ObjectDBX Classes
 90
        0
280
     0
281
     0
  0
CLASS
  1
LAYOUT
  2
AcDbLayout
  3
ObjectDBX Classes
 90
        0
280
     0
281
     0
  0
ENDSEC
  0
SECTION
  2
TABLES
  0
TABLE
  2
VPORT
  5
8
330
0
100
AcDbSymbolTable
 70
     1
  0
VPORT
  5
29
330
8
100
AcDbSymbolTableRecord
100
AcDbViewportTableRecord
  2
*Active
 70
     0
 10
0.0
 20
0.0
 11
1.0
 21
1.0
 12
139.7
 22
107.95
 13
0.0
 23
0.0
 14
10.0
 24
10.0
 15
10.0
 25
10.0
 16
0.0
 26
0.0
 36
1.0
 17
0.0
 27
0.0
 37
0.0
 40
215.9
 41
1.2941176471
 42
50.0
 43
0.0
 44
0.0
 50
0.0
 51
0.0
 71
     0
 72
  2000
 73
     1
 74
     3
 75
     0
 76
     0
 77
     0
 78
     0
281
     0
 65
     1
110
0.0
120
0.0
130
0.0
111
1.0
121
0.0
131
0.0
112
0.0
122
1.0
132
0.0
 79
     0
146
0.0
  0
ENDTAB
  0
TABLE
  2
LTYPE
  5
5
330
0
100
AcDbSymbolTable
 70
     6
  0
LTYPE
  5
14
330
5
100
AcDbSymbolTableRecord
100
AcDbLinetypeTableRecord
  2
ByBlock
 70
     0
  3

 72
    65
 73
     0
 40
0.0
  0
LTYPE
  5
15
330
5
100
AcDbSymbolTableRecord
100
AcDbLinetypeTableRecord
  2
ByLayer
 70
     0
  3

 72
    65
 73
     0
 40
0.0
  0
LTYPE
  5
16
330
5
100
AcDbSymbolTableRecord
100
AcDbLinetypeTableRecord
  2
Continuous
 70
     0
  3
Solid line
 72
    65
 73
     0
 40
0.0
  0
LTYPE
  5
6E
330
5
100
AcDbSymbolTableRecord
100
AcDbLinetypeTableRecord
  2
HIDDEN
 70
     0
  3
Hidden __ __ __ __ __ __ __ __ __ __ __ __ __ __
 72
    65
 73
     2
 40
1.905
 49
1.27
 74
     0
 49
-0.635
 74
     0
  0
LTYPE
  5
6F
330
5
100
AcDbSymbolTableRecord
100
AcDbLinetypeTableRecord
  2
PHANTOM
 70
     0
  3
Phantom ______  __  __  ______  __  __  ______
 72
    65
 73
     6
 40
12.7
 49
6.35
 74
     0
 49
-1.27
 74
     0
 49
1.27
 74
     0
 49
-1.27
 74
     0
 49
1.27
 74
     0
 49
-1.27
 74
     0
  0
LTYPE
  5
70
330
5
100
AcDbSymbolTableRecord
100
AcDbLinetypeTableRecord
  2
CENTER
 70
     0
  3
Center ____ _ ____ _ ____ _ ____ _ ____ _ ____
 72
    65
 73
     4
 40
10.16
 49
6.35
 74
     0
 49
-1.27
 74
     0
 49
1.27
 74
     0
 49
-1.27
 74
     0
  0
LTYPE
  5
71
330
5
100
AcDbSymbolTableRecord
100
AcDbLinetypeTableRecord
  2
CENTERX2
 70
     0
  3
Center (2x) ________  __  ________  __  _____
 72
    65
 73
     4
 40
20.32
 49
12.7
 74
     0
 49
-2.54
 74
     0
 49
2.54
 74
     0
 49
-2.54
 74
     0
  0
LTYPE
  5
72
330
5
100
AcDbSymbolTableRecord
100
AcDbLinetypeTableRecord
  2
DOT2
 70
     0
  3
Dot (.5x) ........................................
 72
    65
 73
     2
 40
0.635
 49
0.0
 74
     0
 49
-0.635
 74
     0
  0
ENDTAB
  0
TABLE
  2
LAYER
  5
2
330
0
100
AcDbSymbolTable
 70
    17
  0
LAYER
  5
10
330
2
100
AcDbSymbolTableRecord
100
AcDbLayerTableRecord
  2
0
 70
     0
 62
     7
  6
Continuous
370
    -3
390
F
  0
LAYER
  5
73
330
2
100
AcDbSymbolTableRecord
100
AcDbLayerTableRecord
  2
FORMAT
 70
     0
 62
     7
  6
Continuous
370
    -3
390
F
  0
LAYER
  5
74
330
2
100
AcDbSymbolTableRecord
100
AcDbLayerTableRecord
  2
YARDIMCI_GEOMETRI
 70
     0
 62
    -6
  6
Continuous
290
     0
370
    -3
390
F
  0
LAYER
  5
75
330
2
100
AcDbSymbolTableRecord
100
AcDbLayerTableRecord
  2
SAYFA_CERCEVESI
 70
     0
 62
     7
  6
Continuous
370
    25
390
F
  0
LAYER
  5
76
330
2
100
AcDbSymbolTableRecord
100
AcDbLayerTableRecord
  2
ANTET
 70
     0
 62
     7
  6
Continuous
370
    -3
390
F
  0
LAYER
  5
77
330
2
100
AcDbSymbolTableRecord
100
AcDbLayerTableRecord
  2
OLCU
 70
     0
 62
   150
  6
Continuous
370
    -3
390
F
  0
LAYER
  5
78
330
2
100
AcDbSymbolTableRecord
100
AcDbLayerTableRecord
  2
METIN
 70
     0
 62
    96
  6
Continuous
370
    -3
390
F
  0
LAYER
  5
79
330
2
100
AcDbSymbolTableRecord
100
AcDbLayerTableRecord
  2
BALON
 70
     0
 62
     5
  6
Continuous
370
    -3
390
F
  0
LAYER
  5
7A
330
2
100
AcDbSymbolTableRecord
100
AcDbLayerTableRecord
  2
VURGU
 70
     0
 62
     7
  6
Continuous
370
    -3
390
F
  0
LAYER
  5
7B
330
2
100
AcDbSymbolTableRecord
100
AcDbLayerTableRecord
  2
SILIK
 70
     0
 62
     7
  6
Continuous
370
    -3
390
F
  0
LAYER
  5
7C
330
2
100
AcDbSymbolTableRecord
100
AcDbLayerTableRecord
  2
MODEL
 70
     0
 62
     7
  6
Continuous
370
    -3
390
F
  0
LAYER
  5
7D
330
2
100
AcDbSymbolTableRecord
100
AcDbLayerTableRecord
  2
DETAYLANDıRMA
 70
     0
 62
   190
  6
Continuous
370
    -3
390
F
  0
LAYER
  5
7E
330
2
100
AcDbSymbolTableRecord
100
AcDbLayerTableRecord
  2
TOLERANS
 70
     0
 62
   230
  6
Continuous
370
    -3
390
F
  0
LAYER
  5
7F
330
2
100
AcDbSymbolTableRecord
100
AcDbLayerTableRecord
  2
MERKEZ_CIZGILERI
 70
     0
 62
    30
  6
Continuous
370
    -3
390
F
  0
LAYER
  5
80
330
2
100
AcDbSymbolTableRecord
100
AcDbLayerTableRecord
  2
KESIT-DETAY_CIZGILERI
 70
     0
 62
     7
  6
Continuous
370
    -3
390
F
  0
LAYER
  5
81
330
2
100
AcDbSymbolTableRecord
100
AcDbLayerTableRecord
  2
\U+041E\U+0421\U+0415\U+0412\U+042B\U+0415
 70
     0
 62
     7
  6
Continuous
370
    -3
390
F
  0
LAYER
  5
82
330
2
100
AcDbSymbolTableRecord
100
AcDbLayerTableRecord
  2
\U+0412\U+041E\U+0414\U+042F\U+041D\U+042B\U+0415_\U+0417\U+041D\U+0410\U+041A\U+0418
 70
     0
 62
    11
  6
Continuous
370
    -3
390
F
  0
ENDTAB
  0
TABLE
  2
STYLE
  5
3
330
0
100
AcDbSymbolTable
 70
     1
  0
STYLE
  5
11
330
3
100
AcDbSymbolTableRecord
100
AcDbTextStyleTableRecord
  2
Standard
 70
     0
 40
0.0
 41
1.0
 50
0.0
 71
     0
 42
3.5
  3
txt
  4

  0
ENDTAB
  0
TABLE
  2
VIEW
  5
6
330
0
100
AcDbSymbolTable
 70
     0
  0
ENDTAB
  0
TABLE
  2
UCS
  5
7
330
0
100
AcDbSymbolTable
 70
     0
  0
ENDTAB
  0
TABLE
  2
APPID
  5
9
330
0
100
AcDbSymbolTable
 70
     1
  0
APPID
  5
12
330
9
100
AcDbSymbolTableRecord
100
AcDbRegAppTableRecord
  2
ACAD
 70
     0
  0
ENDTAB
  0
TABLE
  2
DIMSTYLE
  5
A
330
0
100
AcDbSymbolTable
 70
     1
100
AcDbDimStyleTable
  0
DIMSTYLE
105
27
330
A
100
AcDbSymbolTableRecord
100
AcDbDimStyleTableRecord
  2
ISO-25
 70
     0
 41
2.5
 42
0.625
 43
3.75
 44
1.25
 73
     0
 74
     0
 77
     1
 78
     8
140
2.5
141
2.5
143
0.0393700787
147
0.625
171
     3
172
     1
178
     0
271
     2
272
     2
274
     3
278
    44
283
     0
284
     8
340
11
  0
ENDTAB
  0
TABLE
  2
BLOCK_RECORD
  5
1
330
0
100
AcDbSymbolTable
 70
    22
  0
BLOCK_RECORD
  5
1F
330
1
100
AcDbSymbolTableRecord
100
AcDbBlockTableRecord
  2
*Model_Space
340
22
  0
BLOCK_RECORD
  5
1B
330
1
100
AcDbSymbolTableRecord
100
AcDbBlockTableRecord
  2
*Paper_Space
340
1E
  0
BLOCK_RECORD
  5
23
330
1
100
AcDbSymbolTableRecord
100
AcDbBlockTableRecord
  2
*Paper_Space0
340
26
  0
BLOCK_RECORD
  5
AF
330
1
100
AcDbSymbolTableRecord
100
AcDbBlockTableRecord
  2
SW_CENTERMARKSYMBOL_0
340
0
102
{BLKREFS
331
BA
102
}
  0
BLOCK_RECORD
  5
BB
330
1
100
AcDbSymbolTableRecord
100
AcDbBlockTableRecord
  2
SW_CENTERMARKSYMBOL_1
340
0
102
{BLKREFS
331
C6
102
}
  0
BLOCK_RECORD
  5
C7
330
1
100
AcDbSymbolTableRecord
100
AcDbBlockTableRecord
  2
SW_CENTERMARKSYMBOL_2
340
0
102
{BLKREFS
331
D2
102
}
  0
BLOCK_RECORD
  5
D3
330
1
100
AcDbSymbolTableRecord
100
AcDbBlockTableRecord
  2
SW_CENTERMARKSYMBOL_3
340
0
102
{BLKREFS
331
DE
102
}
  0
BLOCK_RECORD
  5
DF
330
1
100
AcDbSymbolTableRecord
100
AcDbBlockTableRecord
  2
SW_CENTERMARKSYMBOL_4
340
0
102
{BLKREFS
331
EA
102
}
  0
BLOCK_RECORD
  5
EB
330
1
100
AcDbSymbolTableRecord
100
AcDbBlockTableRecord
  2
SW_CENTERMARKSYMBOL_5
340
0
102
{BLKREFS
331
F6
102
}
  0
BLOCK_RECORD
  5
F7
330
1
100
AcDbSymbolTableRecord
100
AcDbBlockTableRecord
  2
SW_CENTERMARKSYMBOL_6
340
0
102
{BLKREFS
331
102
102
}
  0
BLOCK_RECORD
  5
103
330
1
100
AcDbSymbolTableRecord
100
AcDbBlockTableRecord
  2
SW_CENTERMARKSYMBOL_7
340
0
102
{BLKREFS
331
10E
102
}
  0
BLOCK_RECORD
  5
10F
330
1
100
AcDbSymbolTableRecord
100
AcDbBlockTableRecord
  2
SW_CENTERMARKSYMBOL_8
340
0
102
{BLKREFS
331
11A
102
}
  0
BLOCK_RECORD
  5
11B
330
1
100
AcDbSymbolTableRecord
100
AcDbBlockTableRecord
  2
SW_CENTERMARKSYMBOL_9
340
0
102
{BLKREFS
331
126
102
}
  0
BLOCK_RECORD
  5
127
330
1
100
AcDbSymbolTableRecord
100
AcDbBlockTableRecord
  2
SW_CENTERMARKSYMBOL_10
340
0
102
{BLKREFS
331
132
102
}
  0
BLOCK_RECORD
  5
133
330
1
100
AcDbSymbolTableRecord
100
AcDbBlockTableRecord
  2
SW_CENTERMARKSYMBOL_11
340
0
102
{BLKREFS
331
13E
102
}
  0
BLOCK_RECORD
  5
13F
330
1
100
AcDbSymbolTableRecord
100
AcDbBlockTableRecord
  2
SW_CENTERMARKSYMBOL_12
340
0
102
{BLKREFS
331
14A
102
}
  0
BLOCK_RECORD
  5
14B
330
1
100
AcDbSymbolTableRecord
100
AcDbBlockTableRecord
  2
SW_CENTERMARKSYMBOL_13
340
0
102
{BLKREFS
331
156
102
}
  0
BLOCK_RECORD
  5
157
330
1
100
AcDbSymbolTableRecord
100
AcDbBlockTableRecord
  2
SW_CENTERMARKSYMBOL_14
340
0
102
{BLKREFS
331
162
102
}
  0
BLOCK_RECORD
  5
163
330
1
100
AcDbSymbolTableRecord
100
AcDbBlockTableRecord
  2
SW_CENTERMARKSYMBOL_15
340
0
102
{BLKREFS
331
16E
102
}
  0
BLOCK_RECORD
  5
16F
330
1
100
AcDbSymbolTableRecord
100
AcDbBlockTableRecord
  2
SW_CENTERMARKSYMBOL_16
340
0
102
{BLKREFS
331
17A
102
}
  0
BLOCK_RECORD
  5
17B
330
1
100
AcDbSymbolTableRecord
100
AcDbBlockTableRecord
  2
SW_CENTERMARKSYMBOL_17
340
0
102
{BLKREFS
331
186
102
}
  0
BLOCK_RECORD
  5
187
330
1
100
AcDbSymbolTableRecord
100
AcDbBlockTableRecord
  2
SW_CENTERMARKSYMBOL_18
340
0
102
{BLKREFS
331
192
102
}
  0
BLOCK_RECORD
  5
193
330
1
100
AcDbSymbolTableRecord
100
AcDbBlockTableRecord
  2
SW_CENTERMARKSYMBOL_19
340
0
102
{BLKREFS
331
19E
102
}
  0
BLOCK_RECORD
  5
19F
330
1
100
AcDbSymbolTableRecord
100
AcDbBlockTableRecord
  2
SW_CENTERMARKSYMBOL_20
340
0
102
{BLKREFS
331
1AA
102
}
  0
ENDTAB
  0
ENDSEC
  0
SECTION
  2
BLOCKS
  0
BLOCK
  5
20
330
1F
100
AcDbEntity
  8
0
100
AcDbBlockBegin
  2
*Model_Space
 70
     0
 10
0.0
 20
0.0
 30
0.0
  3
*Model_Space
  1

  0
ENDBLK
  5
21
330
1F
100
AcDbEntity
  8
0
100
AcDbBlockEnd
  0
BLOCK
  5
1C
330
1B
100
AcDbEntity
 67
     1
  8
0
100
AcDbBlockBegin
  2
*Paper_Space
 70
     0
 10
0.0
 20
0.0
 30
0.0
  3
*Paper_Space
  1

  0
ENDBLK
  5
1D
330
1B
100
AcDbEntity
 67
     1
  8
0
100
AcDbBlockEnd
  0
BLOCK
  5
24
330
23
100
AcDbEntity
  8
0
100
AcDbBlockBegin
  2
*Paper_Space0
 70
     0
 10
0.0
 20
0.0
 30
0.0
  3
*Paper_Space0
  1

  0
ENDBLK
  5
25
330
23
100
AcDbEntity
  8
0
100
AcDbBlockEnd
  0
BLOCK
  5
B0
330
AF
100
AcDbEntity
  8
0
100
AcDbBlockBegin
  2
SW_CENTERMARKSYMBOL_0
 70
     0
 10
0.0
 20
0.0
 30
0.0
  3
SW_CENTERMARKSYMBOL_0
  1

  0
LINE
  5
B2
330
AF
100
AcDbEntity
  8
FORMAT
 62
     0
100
AcDbLine
 10
0.0
 20
0.0
 30
0.0
 11
0.0
 21
2.5
 31
0.0
  0
LINE
  5
B3
330
AF
100
AcDbEntity
  8
FORMAT
 62
     0
100
AcDbLine
 10
0.0
 20
0.0
 30
0.0
 11
-2.5
 21
0.0
 31
0.0
  0
LINE
  5
B4
330
AF
100
AcDbEntity
  8
FORMAT
 62
     0
100
AcDbLine
 10
0.0
 20
0.0
 30
0.0
 11
0.0
 21
-2.5
 31
0.0
  0
LINE
  5
B5
330
AF
100
AcDbEntity
  8
FORMAT
 62
     0
100
AcDbLine
 10
0.0
 20
0.0
 30
0.0
 11
2.5
 21
0.0
 31
0.0
  0
LINE
  5
B6
330
AF
100
AcDbEntity
  8
FORMAT
 62
     0
100
AcDbLine
 10
0.0
 20
5.0
 30
0.0
 11
0.0
 21
402.0
 31
0.0
  0
LINE
  5
B7
330
AF
100
AcDbEntity
  8
FORMAT
 62
     0
100
AcDbLine
 10
-5.0
 20
0.0
 30
0.0
 11
-402.0
 21
0.0
 31
0.0
  0
LINE
  5
B8
330
AF
100
AcDbEntity
  8
FORMAT
 62
     0
100
AcDbLine
 10
0.0
 20
-5.0
 30
0.0
 11
0.0
 21
-402.0
 31
0.0
  0
LINE
  5
B9
330
AF
100
AcDbEntity
  8
FORMAT
 62
     0
100
AcDbLine
 10
5.0
 20
0.0
 30
0.0
 11
408.260476022
 21
0.0
 31
0.0
  0
ENDBLK
  5
B1
330
AF
100
AcDbEntity
  8
0
100
AcDbBlockEnd
  0
BLOCK
  5
BC
330
BB
100
AcDbEntity
  8
0
100
AcDbBlockBegin
  2
SW_CENTERMARKSYMBOL_1
 70
     0
 10
0.0
 20
0.0
 30
0.0
  3
SW_CENTERMARKSYMBOL_1
  1

  0
LINE
  5
BE
330
BB
100
AcDbEntity
  8
FORMAT
 62
     0
100
AcDbLine
 10
0.0
 20
0.0
 30
0.0
 11
0.0
 21
2.5
 31
0.0
  0
LINE
  5
BF
330
BB
100
AcDbEntity
  8
FORMAT
 62
     0
100
AcDbLine
 10
0.0
 20
0.0
 30
0.0
 11
-2.5
 21
0.0
 31
0.0
  0
LINE
  5
C0
330
BB
100
AcDbEntity
  8
FORMAT
 62
     0
100
AcDbLine
 10
0.0
 20
0.0
 30
0.0
 11
0.0
 21
-2.5
 31
0.0
  0
LINE
  5
C1
330
BB
100
AcDbEntity
  8
FORMAT
 62
     0
100
AcDbLine
 10
0.0
 20
0.0
 30
0.0
 11
2.5
 21
0.0
 31
0.0
  0
LINE
  5
C2
330
BB
100
AcDbEntity
  8
FORMAT
 62
     0
100
AcDbLine
 10
0.0
 20
5.0
 30
0.0
 11
0.0
 21
17.5
 31
0.0
  0
LINE
  5
C3
330
BB
100
AcDbEntity
  8
FORMAT
 62
     0
100
AcDbLine
 10
-5.0
 20
0.0
 30
0.0
 11
-17.5
 21
0.0
 31
0.0
  0
LINE
  5
C4
330
BB
100
AcDbEntity
  8
FORMAT
 62
     0
100
AcDbLine
 10
0.0
 20
-5.0
 30
0.0
 11
0.0
 21
-17.5
 31
0.0
  0
LINE
  5
C5
330
BB
100
AcDbEntity
  8
FORMAT
 62
     0
100
AcDbLine
 10
5.0
 20
0.0
 30
0.0
 11
17.5
 21
0.0
 31
0.0
  0
ENDBLK
  5
BD
330
BB
100
AcDbEntity
  8
0
100
AcDbBlockEnd
  0
BLOCK
  5
C8
330
C7
100
AcDbEntity
  8
0
100
AcDbBlockBegin
  2
SW_CENTERMARKSYMBOL_2
 70
     0
 10
0.0
 20
0.0
 30
0.0
  3
SW_CENTERMARKSYMBOL_2
  1

  0
LINE
  5
CA
330
C7
100
AcDbEntity
  8
FORMAT
 62
     0
100
AcDbLine
 10
0.0
 20
0.0
 30
0.0
 11
0.0
 21
2.5
 31
0.0
  0
LINE
  5
CB
330
C7
100
AcDbEntity
  8
FORMAT
 62
     0
100
AcDbLine
 10
0.0
 20
0.0
 30
0.0
 11
-2.5
 21
0.0
 31
0.0
  0
LINE
  5
CC
330
C7
100
AcDbEntity
  8
FORMAT
 62
     0
100
AcDbLine
 10
0.0
 20
0.0
 30
0.0
 11
0.0
 21
-2.5
 31
0.0
  0
LINE
  5
CD
330
C7
100
AcDbEntity
  8
FORMAT
 62
     0
100
AcDbLine
 10
0.0
 20
0.0
 30
0.0
 11
2.5
 21
0.0
 31
0.0
  0
LINE
  5
CE
330
C7
100
AcDbEntity
  8
FORMAT
 62
     0
100
AcDbLine
 10
0.0
 20
5.0
 30
0.0
 11
0.0
 21
17.5
 31
0.0
  0
LINE
  5
CF
330
C7
100
AcDbEntity
  8
FORMAT
 62
     0
100
AcDbLine
 10
-5.0
 20
0.0
 30
0.0
 11
-17.5
 21
0.0
 31
0.0
  0
LINE
  5
D0
330
C7
100
AcDbEntity
  8
FORMAT
 62
     0
100
AcDbLine
 10
0.0
 20
-5.0
 30
0.0
 11
0.0
 21
-17.5
 31
0.0
  0
LINE
  5
D1
330
C7
100
AcDbEntity
  8
FORMAT
 62
     0
100
AcDbLine
 10
5.0
 20
0.0
 30
0.0
 11
17.5
 21
0.0
 31
0.0
  0
ENDBLK
  5
C9
330
C7
100
AcDbEntity
  8
0
100
AcDbBlockEnd
  0
BLOCK
  5
D4
330
D3
100
AcDbEntity
  8
0
100
AcDbBlockBegin
  2
SW_CENTERMARKSYMBOL_3
 70
     0
 10
0.0
 20
0.0
 30
0.0
  3
SW_CENTERMARKSYMBOL_3
  1

  0
LINE
  5
D6
330
D3
100
AcDbEntity
  8
FORMAT
 62
     0
100
AcDbLine
 10
0.0
 20
0.0
 30
0.0
 11
0.0
 21
2.5
 31
0.0
  0
LINE
  5
D7
330
D3
100
AcDbEntity
  8
FORMAT
 62
     0
100
AcDbLine
 10
0.0
 20
0.0
 30
0.0
 11
-2.5
 21
0.0
 31
0.0
  0
LINE
  5
D8
330
D3
100
AcDbEntity
  8
FORMAT
 62
     0
100
AcDbLine
 10
0.0
 20
0.0
 30
0.0
 11
0.0
 21
-2.5
 31
0.0
  0
LINE
  5
D9
330
D3
100
AcDbEntity
  8
FORMAT
 62
     0
100
AcDbLine
 10
0.0
 20
0.0
 30
0.0
 11
2.5
 21
0.0
 31
0.0
  0
LINE
  5
DA
330
D3
100
AcDbEntity
  8
FORMAT
 62
     0
100
AcDbLine
 10
0.0
 20
5.0
 30
0.0
 11
0.0
 21
17.5
 31
0.0
  0
LINE
  5
DB
330
D3
100
AcDbEntity
  8
FORMAT
 62
     0
100
AcDbLine
 10
-5.0
 20
0.0
 30
0.0
 11
-17.5
 21
0.0
 31
0.0
  0
LINE
  5
DC
330
D3
100
AcDbEntity
  8
FORMAT
 62
     0
100
AcDbLine
 10
0.0
 20
-5.0
 30
0.0
 11
0.0
 21
-17.5
 31
0.0
  0
LINE
  5
DD
330
D3
100
AcDbEntity
  8
FORMAT
 62
     0
100
AcDbLine
 10
5.0
 20
0.0
 30
0.0
 11
17.5
 21
0.0
 31
0.0
  0
ENDBLK
  5
D5
330
D3
100
AcDbEntity
  8
0
100
AcDbBlockEnd
  0
BLOCK
  5
E0
330
DF
100
AcDbEntity
  8
0
100
AcDbBlockBegin
  2
SW_CENTERMARKSYMBOL_4
 70
     0
 10
0.0
 20
0.0
 30
0.0
  3
SW_CENTERMARKSYMBOL_4
  1

  0
LINE
  5
E2
330
DF
100
AcDbEntity
  8
FORMAT
 62
     0
100
AcDbLine
 10
0.0
 20
0.0
 30
0.0
 11
0.0
 21
2.5
 31
0.0
  0
LINE
  5
E3
330
DF
100
AcDbEntity
  8
FORMAT
 62
     0
100
AcDbLine
 10
0.0
 20
0.0
 30
0.0
 11
-2.5
 21
0.0
 31
0.0
  0
LINE
  5
E4
330
DF
100
AcDbEntity
  8
FORMAT
 62
     0
100
AcDbLine
 10
0.0
 20
0.0
 30
0.0
 11
0.0
 21
-2.5
 31
0.0
  0
LINE
  5
E5
330
DF
100
AcDbEntity
  8
FORMAT
 62
     0
100
AcDbLine
 10
0.0
 20
0.0
 30
0.0
 11
2.5
 21
0.0
 31
0.0
  0
LINE
  5
E6
330
DF
100
AcDbEntity
  8
FORMAT
 62
     0
100
AcDbLine
 10
0.0
 20
5.0
 30
0.0
 11
0.0
 21
17.5
 31
0.0
  0
LINE
  5
E7
330
DF
100
AcDbEntity
  8
FORMAT
 62
     0
100
AcDbLine
 10
-5.0
 20
0.0
 30
0.0
 11
-17.5
 21
0.0
 31
0.0
  0
LINE
  5
E8
330
DF
100
AcDbEntity
  8
FORMAT
 62
     0
100
AcDbLine
 10
0.0
 20
-5.0
 30
0.0
 11
0.0
 21
-17.5
 31
0.0
  0
LINE
  5
E9
330
DF
100
AcDbEntity
  8
FORMAT
 62
     0
100
AcDbLine
 10
5.0
 20
0.0
 30
0.0
 11
17.5
 21
0.0
 31
0.0
  0
ENDBLK
  5
E1
330
DF
100
AcDbEntity
  8
0
100
AcDbBlockEnd
  0
BLOCK
  5
EC
330
EB
100
AcDbEntity
  8
0
100
AcDbBlockBegin
  2
SW_CENTERMARKSYMBOL_5
 70
     0
 10
0.0
 20
0.0
 30
0.0
  3
SW_CENTERMARKSYMBOL_5
  1

  0
LINE
  5
EE
330
EB
100
AcDbEntity
  8
FORMAT
 62
     0
100
AcDbLine
 10
0.0
 20
0.0
 30
0.0
 11
0.0
 21
2.5
 31
0.0
  0
LINE
  5
EF
330
EB
100
AcDbEntity
  8
FORMAT
 62
     0
100
AcDbLine
 10
0.0
 20
0.0
 30
0.0
 11
-2.5
 21
0.0
 31
0.0
  0
LINE
  5
F0
330
EB
100
AcDbEntity
  8
FORMAT
 62
     0
100
AcDbLine
 10
0.0
 20
0.0
 30
0.0
 11
0.0
 21
-2.5
 31
0.0
  0
LINE
  5
F1
330
EB
100
AcDbEntity
  8
FORMAT
 62
     0
100
AcDbLine
 10
0.0
 20
0.0
 30
0.0
 11
2.5
 21
0.0
 31
0.0
  0
LINE
  5
F2
330
EB
100
AcDbEntity
  8
FORMAT
 62
     0
100
AcDbLine
 10
0.0
 20
5.0
 30
0.0
 11
0.0
 21
18.5
 31
0.0
  0
LINE
  5
F3
330
EB
100
AcDbEntity
  8
FORMAT
 62
     0
100
AcDbLine
 10
-5.0
 20
0.0
 30
0.0
 11
-18.5
 21
0.0
 31
0.0
  0
LINE
  5
F4
330
EB
100
AcDbEntity
  8
FORMAT
 62
     0
100
AcDbLine
 10
0.0
 20
-5.0
 30
0.0
 11
0.0
 21
-18.5
 31
0.0
  0
LINE
  5
F5
330
EB
100
AcDbEntity
  8
FORMAT
 62
     0
100
AcDbLine
 10
5.0
 20
0.0
 30
0.0
 11
18.5
 21
0.0
 31
0.0
  0
ENDBLK
  5
ED
330
EB
100
AcDbEntity
  8
0
100
AcDbBlockEnd
  0
BLOCK
  5
F8
330
F7
100
AcDbEntity
  8
0
100
AcDbBlockBegin
  2
SW_CENTERMARKSYMBOL_6
 70
     0
 10
0.0
 20
0.0
 30
0.0
  3
SW_CENTERMARKSYMBOL_6
  1

  0
LINE
  5
FA
330
F7
100
AcDbEntity
  8
FORMAT
 62
     0
100
AcDbLine
 10
0.0
 20
0.0
 30
0.0
 11
0.0
 21
2.5
 31
0.0
  0
LINE
  5
FB
330
F7
100
AcDbEntity
  8
FORMAT
 62
     0
100
AcDbLine
 10
0.0
 20
0.0
 30
0.0
 11
-2.5
 21
0.0
 31
0.0
  0
LINE
  5
FC
330
F7
100
AcDbEntity
  8
FORMAT
 62
     0
100
AcDbLine
 10
0.0
 20
0.0
 30
0.0
 11
0.0
 21
-2.5
 31
0.0
  0
LINE
  5
FD
330
F7
100
AcDbEntity
  8
FORMAT
 62
     0
100
AcDbLine
 10
0.0
 20
0.0
 30
0.0
 11
2.5
 21
0.0
 31
0.0
  0
LINE
  5
FE
330
F7
100
AcDbEntity
  8
FORMAT
 62
     0
100
AcDbLine
 10
0.0
 20
5.0
 30
0.0
 11
0.0
 21
18.5
 31
0.0
  0
LINE
  5
FF
330
F7
100
AcDbEntity
  8
FORMAT
 62
     0
100
AcDbLine
 10
-5.0
 20
0.0
 30
0.0
 11
-18.5
 21
0.0
 31
0.0
  0
LINE
  5
100
330
F7
100
AcDbEntity
  8
FORMAT
 62
     0
100
AcDbLine
 10
0.0
 20
-5.0
 30
0.0
 11
0.0
 21
-18.5
 31
0.0
  0
LINE
  5
101
330
F7
100
AcDbEntity
  8
FORMAT
 62
     0
100
AcDbLine
 10
5.0
 20
0.0
 30
0.0
 11
18.5
 21
0.0
 31
0.0
  0
ENDBLK
  5
F9
330
F7
100
AcDbEntity
  8
0
100
AcDbBlockEnd
  0
BLOCK
  5
104
330
103
100
AcDbEntity
  8
0
100
AcDbBlockBegin
  2
SW_CENTERMARKSYMBOL_7
 70
     0
 10
0.0
 20
0.0
 30
0.0
  3
SW_CENTERMARKSYMBOL_7
  1

  0
LINE
  5
106
330
103
100
AcDbEntity
  8
FORMAT
 62
     0
100
AcDbLine
 10
0.0
 20
0.0
 30
0.0
 11
0.0
 21
2.5
 31
0.0
  0
LINE
  5
107
330
103
100
AcDbEntity
  8
FORMAT
 62
     0
100
AcDbLine
 10
0.0
 20
0.0
 30
0.0
 11
-2.5
 21
0.0
 31
0.0
  0
LINE
  5
108
330
103
100
AcDbEntity
  8
FORMAT
 62
     0
100
AcDbLine
 10
0.0
 20
0.0
 30
0.0
 11
0.0
 21
-2.5
 31
0.0
  0
LINE
  5
109
330
103
100
AcDbEntity
  8
FORMAT
 62
     0
100
AcDbLine
 10
0.0
 20
0.0
 30
0.0
 11
2.5
 21
0.0
 31
0.0
  0
LINE
  5
10A
330
103
100
AcDbEntity
  8
FORMAT
 62
     0
100
AcDbLine
 10
0.0
 20
5.0
 30
0.0
 11
0.0
 21
18.5
 31
0.0
  0
LINE
  5
10B
330
103
100
AcDbEntity
  8
FORMAT
 62
     0
100
AcDbLine
 10
-5.0
 20
0.0
 30
0.0
 11
-18.5
 21
0.0
 31
0.0
  0
LINE
  5
10C
330
103
100
AcDbEntity
  8
FORMAT
 62
     0
100
AcDbLine
 10
0.0
 20
-5.0
 30
0.0
 11
0.0
 21
-18.5
 31
0.0
  0
LINE
  5
10D
330
103
100
AcDbEntity
  8
FORMAT
 62
     0
100
AcDbLine
 10
5.0
 20
0.0
 30
0.0
 11
18.5
 21
0.0
 31
0.0
  0
ENDBLK
  5
105
330
103
100
AcDbEntity
  8
0
100
AcDbBlockEnd
  0
BLOCK
  5
110
330
10F
100
AcDbEntity
  8
0
100
AcDbBlockBegin
  2
SW_CENTERMARKSYMBOL_8
 70
     0
 10
0.0
 20
0.0
 30
0.0
  3
SW_CENTERMARKSYMBOL_8
  1

  0
LINE
  5
112
330
10F
100
AcDbEntity
  8
FORMAT
 62
     0
100
AcDbLine
 10
0.0
 20
0.0
 30
0.0
 11
0.0
 21
2.5
 31
0.0
  0
LINE
  5
113
330
10F
100
AcDbEntity
  8
FORMAT
 62
     0
100
AcDbLine
 10
0.0
 20
0.0
 30
0.0
 11
-2.5
 21
0.0
 31
0.0
  0
LINE
  5
114
330
10F
100
AcDbEntity
  8
FORMAT
 62
     0
100
AcDbLine
 10
0.0
 20
0.0
 30
0.0
 11
0.0
 21
-2.5
 31
0.0
  0
LINE
  5
115
330
10F
100
AcDbEntity
  8
FORMAT
 62
     0
100
AcDbLine
 10
0.0
 20
0.0
 30
0.0
 11
2.5
 21
0.0
 31
0.0
  0
LINE
  5
116
330
10F
100
AcDbEntity
  8
FORMAT
 62
     0
100
AcDbLine
 10
0.0
 20
5.0
 30
0.0
 11
0.0
 21
18.5
 31
0.0
  0
LINE
  5
117
330
10F
100
AcDbEntity
  8
FORMAT
 62
     0
100
AcDbLine
 10
-5.0
 20
0.0
 30
0.0
 11
-18.5
 21
0.0
 31
0.0
  0
LINE
  5
118
330
10F
100
AcDbEntity
  8
FORMAT
 62
     0
100
AcDbLine
 10
0.0
 20
-5.0
 30
0.0
 11
0.0
 21
-18.5
 31
0.0
  0
LINE
  5
119
330
10F
100
AcDbEntity
  8
FORMAT
 62
     0
100
AcDbLine
 10
5.0
 20
0.0
 30
0.0
 11
18.5
 21
0.0
 31
0.0
  0
ENDBLK
  5
111
330
10F
100
AcDbEntity
  8
0
100
AcDbBlockEnd
  0
BLOCK
  5
11C
330
11B
100
AcDbEntity
  8
0
100
AcDbBlockBegin
  2
SW_CENTERMARKSYMBOL_9
 70
     0
 10
0.0
 20
0.0
 30
0.0
  3
SW_CENTERMARKSYMBOL_9
  1

  0
LINE
  5
11E
330
11B
100
AcDbEntity
  8
FORMAT
 62
     0
100
AcDbLine
 10
0.0
 20
0.0
 30
0.0
 11
0.0
 21
2.5
 31
0.0
  0
LINE
  5
11F
330
11B
100
AcDbEntity
  8
FORMAT
 62
     0
100
AcDbLine
 10
0.0
 20
0.0
 30
0.0
 11
-2.5
 21
0.0
 31
0.0
  0
LINE
  5
120
330
11B
100
AcDbEntity
  8
FORMAT
 62
     0
100
AcDbLine
 10
0.0
 20
0.0
 30
0.0
 11
0.0
 21
-2.5
 31
0.0
  0
LINE
  5
121
330
11B
100
AcDbEntity
  8
FORMAT
 62
     0
100
AcDbLine
 10
0.0
 20
0.0
 30
0.0
 11
2.5
 21
0.0
 31
0.0
  0
LINE
  5
122
330
11B
100
AcDbEntity
  8
FORMAT
 62
     0
100
AcDbLine
 10
0.0
 20
5.0
 30
0.0
 11
0.0
 21
18.5
 31
0.0
  0
LINE
  5
123
330
11B
100
AcDbEntity
  8
FORMAT
 62
     0
100
AcDbLine
 10
-5.0
 20
0.0
 30
0.0
 11
-18.5
 21
0.0
 31
0.0
  0
LINE
  5
124
330
11B
100
AcDbEntity
  8
FORMAT
 62
     0
100
AcDbLine
 10
0.0
 20
-5.0
 30
0.0
 11
0.0
 21
-18.5
 31
0.0
  0
LINE
  5
125
330
11B
100
AcDbEntity
  8
FORMAT
 62
     0
100
AcDbLine
 10
5.0
 20
0.0
 30
0.0
 11
18.5
 21
0.0
 31
0.0
  0
ENDBLK
  5
11D
330
11B
100
AcDbEntity
  8
0
100
AcDbBlockEnd
  0
BLOCK
  5
128
330
127
100
AcDbEntity
  8
0
100
AcDbBlockBegin
  2
SW_CENTERMARKSYMBOL_10
 70
     0
 10
0.0
 20
0.0
 30
0.0
  3
SW_CENTERMARKSYMBOL_10
  1

  0
LINE
  5
12A
330
127
100
AcDbEntity
  8
FORMAT
 62
     0
100
AcDbLine
 10
0.0
 20
0.0
 30
0.0
 11
0.0
 21
2.5
 31
0.0
  0
LINE
  5
12B
330
127
100
AcDbEntity
  8
FORMAT
 62
     0
100
AcDbLine
 10
0.0
 20
0.0
 30
0.0
 11
-2.5
 21
0.0
 31
0.0
  0
LINE
  5
12C
330
127
100
AcDbEntity
  8
FORMAT
 62
     0
100
AcDbLine
 10
0.0
 20
0.0
 30
0.0
 11
0.0
 21
-2.5
 31
0.0
  0
LINE
  5
12D
330
127
100
AcDbEntity
  8
FORMAT
 62
     0
100
AcDbLine
 10
0.0
 20
0.0
 30
0.0
 11
2.5
 21
0.0
 31
0.0
  0
LINE
  5
12E
330
127
100
AcDbEntity
  8
FORMAT
 62
     0
100
AcDbLine
 10
0.0
 20
5.0
 30
0.0
 11
0.0
 21
18.5
 31
0.0
  0
LINE
  5
12F
330
127
100
AcDbEntity
  8
FORMAT
 62
     0
100
AcDbLine
 10
-5.0
 20
0.0
 30
0.0
 11
-18.5
 21
0.0
 31
0.0
  0
LINE
  5
130
330
127
100
AcDbEntity
  8
FORMAT
 62
     0
100
AcDbLine
 10
0.0
 20
-5.0
 30
0.0
 11
0.0
 21
-18.5
 31
0.0
  0
LINE
  5
131
330
127
100
AcDbEntity
  8
FORMAT
 62
     0
100
AcDbLine
 10
5.0
 20
0.0
 30
0.0
 11
18.5
 21
0.0
 31
0.0
  0
ENDBLK
  5
129
330
127
100
AcDbEntity
  8
0
100
AcDbBlockEnd
  0
BLOCK
  5
134
330
133
100
AcDbEntity
  8
0
100
AcDbBlockBegin
  2
SW_CENTERMARKSYMBOL_11
 70
     0
 10
0.0
 20
0.0
 30
0.0
  3
SW_CENTERMARKSYMBOL_11
  1

  0
LINE
  5
136
330
133
100
AcDbEntity
  8
FORMAT
 62
     0
100
AcDbLine
 10
0.0
 20
0.0
 30
0.0
 11
0.0
 21
2.5
 31
0.0
  0
LINE
  5
137
330
133
100
AcDbEntity
  8
FORMAT
 62
     0
100
AcDbLine
 10
0.0
 20
0.0
 30
0.0
 11
-2.5
 21
0.0
 31
0.0
  0
LINE
  5
138
330
133
100
AcDbEntity
  8
FORMAT
 62
     0
100
AcDbLine
 10
0.0
 20
0.0
 30
0.0
 11
0.0
 21
-2.5
 31
0.0
  0
LINE
  5
139
330
133
100
AcDbEntity
  8
FORMAT
 62
     0
100
AcDbLine
 10
0.0
 20
0.0
 30
0.0
 11
2.5
 21
0.0
 31
0.0
  0
LINE
  5
13A
330
133
100
AcDbEntity
  8
FORMAT
 62
     0
100
AcDbLine
 10
0.0
 20
5.0
 30
0.0
 11
0.0
 21
18.5
 31
0.0
  0
LINE
  5
13B
330
133
100
AcDbEntity
  8
FORMAT
 62
     0
100
AcDbLine
 10
-5.0
 20
0.0
 30
0.0
 11
-18.5
 21
0.0
 31
0.0
  0
LINE
  5
13C
330
133
100
AcDbEntity
  8
FORMAT
 62
     0
100
AcDbLine
 10
0.0
 20
-5.0
 30
0.0
 11
0.0
 21
-18.5
 31
0.0
  0
LINE
  5
13D
330
133
100
AcDbEntity
  8
FORMAT
 62
     0
100
AcDbLine
 10
5.0
 20
0.0
 30
0.0
 11
18.5
 21
0.0
 31
0.0
  0
ENDBLK
  5
135
330
133
100
AcDbEntity
  8
0
100
AcDbBlockEnd
  0
BLOCK
  5
140
330
13F
100
AcDbEntity
  8
0
100
AcDbBlockBegin
  2
SW_CENTERMARKSYMBOL_12
 70
     0
 10
0.0
 20
0.0
 30
0.0
  3
SW_CENTERMARKSYMBOL_12
  1

  0
LINE
  5
142
330
13F
100
AcDbEntity
  8
FORMAT
 62
     0
100
AcDbLine
 10
0.0
 20
0.0
 30
0.0
 11
0.0
 21
2.5
 31
0.0
  0
LINE
  5
143
330
13F
100
AcDbEntity
  8
FORMAT
 62
     0
100
AcDbLine
 10
0.0
 20
0.0
 30
0.0
 11
-2.5
 21
0.0
 31
0.0
  0
LINE
  5
144
330
13F
100
AcDbEntity
  8
FORMAT
 62
     0
100
AcDbLine
 10
0.0
 20
0.0
 30
0.0
 11
0.0
 21
-2.5
 31
0.0
  0
LINE
  5
145
330
13F
100
AcDbEntity
  8
FORMAT
 62
     0
100
AcDbLine
 10
0.0
 20
0.0
 30
0.0
 11
2.5
 21
0.0
 31
0.0
  0
LINE
  5
146
330
13F
100
AcDbEntity
  8
FORMAT
 62
     0
100
AcDbLine
 10
0.0
 20
5.0
 30
0.0
 11
0.0
 21
18.5
 31
0.0
  0
LINE
  5
147
330
13F
100
AcDbEntity
  8
FORMAT
 62
     0
100
AcDbLine
 10
-5.0
 20
0.0
 30
0.0
 11
-18.5
 21
0.0
 31
0.0
  0
LINE
  5
148
330
13F
100
AcDbEntity
  8
FORMAT
 62
     0
100
AcDbLine
 10
0.0
 20
-5.0
 30
0.0
 11
0.0
 21
-18.5
 31
0.0
  0
LINE
  5
149
330
13F
100
AcDbEntity
  8
FORMAT
 62
     0
100
AcDbLine
 10
5.0
 20
0.0
 30
0.0
 11
18.5
 21
0.0
 31
0.0
  0
ENDBLK
  5
141
330
13F
100
AcDbEntity
  8
0
100
AcDbBlockEnd
  0
BLOCK
  5
14C
330
14B
100
AcDbEntity
  8
0
100
AcDbBlockBegin
  2
SW_CENTERMARKSYMBOL_13
 70
     0
 10
0.0
 20
0.0
 30
0.0
  3
SW_CENTERMARKSYMBOL_13
  1

  0
LINE
  5
14E
330
14B
100
AcDbEntity
  8
FORMAT
 62
     0
100
AcDbLine
 10
0.0
 20
0.0
 30
0.0
 11
0.0
 21
2.5
 31
0.0
  0
LINE
  5
14F
330
14B
100
AcDbEntity
  8
FORMAT
 62
     0
100
AcDbLine
 10
0.0
 20
0.0
 30
0.0
 11
-2.5
 21
0.0
 31
0.0
  0
LINE
  5
150
330
14B
100
AcDbEntity
  8
FORMAT
 62
     0
100
AcDbLine
 10
0.0
 20
0.0
 30
0.0
 11
0.0
 21
-2.5
 31
0.0
  0
LINE
  5
151
330
14B
100
AcDbEntity
  8
FORMAT
 62
     0
100
AcDbLine
 10
0.0
 20
0.0
 30
0.0
 11
2.5
 21
0.0
 31
0.0
  0
LINE
  5
152
330
14B
100
AcDbEntity
  8
FORMAT
 62
     0
100
AcDbLine
 10
0.0
 20
5.0
 30
0.0
 11
0.0
 21
18.5
 31
0.0
  0
LINE
  5
153
330
14B
100
AcDbEntity
  8
FORMAT
 62
     0
100
AcDbLine
 10
-5.0
 20
0.0
 30
0.0
 11
-18.5
 21
0.0
 31
0.0
  0
LINE
  5
154
330
14B
100
AcDbEntity
  8
FORMAT
 62
     0
100
AcDbLine
 10
0.0
 20
-5.0
 30
0.0
 11
0.0
 21
-18.5
 31
0.0
  0
LINE
  5
155
330
14B
100
AcDbEntity
  8
FORMAT
 62
     0
100
AcDbLine
 10
5.0
 20
0.0
 30
0.0
 11
18.5
 21
0.0
 31
0.0
  0
ENDBLK
  5
14D
330
14B
100
AcDbEntity
  8
0
100
AcDbBlockEnd
  0
BLOCK
  5
158
330
157
100
AcDbEntity
  8
0
100
AcDbBlockBegin
  2
SW_CENTERMARKSYMBOL_14
 70
     0
 10
0.0
 20
0.0
 30
0.0
  3
SW_CENTERMARKSYMBOL_14
  1

  0
LINE
  5
15A
330
157
100
AcDbEntity
  8
FORMAT
 62
     0
100
AcDbLine
 10
0.0
 20
0.0
 30
0.0
 11
0.0
 21
2.5
 31
0.0
  0
LINE
  5
15B
330
157
100
AcDbEntity
  8
FORMAT
 62
     0
100
AcDbLine
 10
0.0
 20
0.0
 30
0.0
 11
-2.5
 21
0.0
 31
0.0
  0
LINE
  5
15C
330
157
100
AcDbEntity
  8
FORMAT
 62
     0
100
AcDbLine
 10
0.0
 20
0.0
 30
0.0
 11
0.0
 21
-2.5
 31
0.0
  0
LINE
  5
15D
330
157
100
AcDbEntity
  8
FORMAT
 62
     0
100
AcDbLine
 10
0.0
 20
0.0
 30
0.0
 11
2.5
 21
0.0
 31
0.0
  0
LINE
  5
15E
330
157
100
AcDbEntity
  8
FORMAT
 62
     0
100
AcDbLine
 10
0.0
 20
5.0
 30
0.0
 11
0.0
 21
18.5
 31
0.0
  0
LINE
  5
15F
330
157
100
AcDbEntity
  8
FORMAT
 62
     0
100
AcDbLine
 10
-5.0
 20
0.0
 30
0.0
 11
-18.5
 21
0.0
 31
0.0
  0
LINE
  5
160
330
157
100
AcDbEntity
  8
FORMAT
 62
     0
100
AcDbLine
 10
0.0
 20
-5.0
 30
0.0
 11
0.0
 21
-18.5
 31
0.0
  0
LINE
  5
161
330
157
100
AcDbEntity
  8
FORMAT
 62
     0
100
AcDbLine
 10
5.0
 20
0.0
 30
0.0
 11
18.5
 21
0.0
 31
0.0
  0
ENDBLK
  5
159
330
157
100
AcDbEntity
  8
0
100
AcDbBlockEnd
  0
BLOCK
  5
164
330
163
100
AcDbEntity
  8
0
100
AcDbBlockBegin
  2
SW_CENTERMARKSYMBOL_15
 70
     0
 10
0.0
 20
0.0
 30
0.0
  3
SW_CENTERMARKSYMBOL_15
  1

  0
LINE
  5
166
330
163
100
AcDbEntity
  8
FORMAT
 62
     0
100
AcDbLine
 10
0.0
 20
0.0
 30
0.0
 11
0.0
 21
2.5
 31
0.0
  0
LINE
  5
167
330
163
100
AcDbEntity
  8
FORMAT
 62
     0
100
AcDbLine
 10
0.0
 20
0.0
 30
0.0
 11
-2.5
 21
0.0
 31
0.0
  0
LINE
  5
168
330
163
100
AcDbEntity
  8
FORMAT
 62
     0
100
AcDbLine
 10
0.0
 20
0.0
 30
0.0
 11
0.0
 21
-2.5
 31
0.0
  0
LINE
  5
169
330
163
100
AcDbEntity
  8
FORMAT
 62
     0
100
AcDbLine
 10
0.0
 20
0.0
 30
0.0
 11
2.5
 21
0.0
 31
0.0
  0
LINE
  5
16A
330
163
100
AcDbEntity
  8
FORMAT
 62
     0
100
AcDbLine
 10
0.0
 20
5.0
 30
0.0
 11
0.0
 21
18.5
 31
0.0
  0
LINE
  5
16B
330
163
100
AcDbEntity
  8
FORMAT
 62
     0
100
AcDbLine
 10
-5.0
 20
0.0
 30
0.0
 11
-18.5
 21
0.0
 31
0.0
  0
LINE
  5
16C
330
163
100
AcDbEntity
  8
FORMAT
 62
     0
100
AcDbLine
 10
0.0
 20
-5.0
 30
0.0
 11
0.0
 21
-18.5
 31
0.0
  0
LINE
  5
16D
330
163
100
AcDbEntity
  8
FORMAT
 62
     0
100
AcDbLine
 10
5.0
 20
0.0
 30
0.0
 11
18.5
 21
0.0
 31
0.0
  0
ENDBLK
  5
165
330
163
100
AcDbEntity
  8
0
100
AcDbBlockEnd
  0
BLOCK
  5
170
330
16F
100
AcDbEntity
  8
0
100
AcDbBlockBegin
  2
SW_CENTERMARKSYMBOL_16
 70
     0
 10
0.0
 20
0.0
 30
0.0
  3
SW_CENTERMARKSYMBOL_16
  1

  0
LINE
  5
172
330
16F
100
AcDbEntity
  8
FORMAT
 62
     0
100
AcDbLine
 10
0.0
 20
0.0
 30
0.0
 11
0.0
 21
2.5
 31
0.0
  0
LINE
  5
173
330
16F
100
AcDbEntity
  8
FORMAT
 62
     0
100
AcDbLine
 10
0.0
 20
0.0
 30
0.0
 11
-2.5
 21
0.0
 31
0.0
  0
LINE
  5
174
330
16F
100
AcDbEntity
  8
FORMAT
 62
     0
100
AcDbLine
 10
0.0
 20
0.0
 30
0.0
 11
0.0
 21
-2.5
 31
0.0
  0
LINE
  5
175
330
16F
100
AcDbEntity
  8
FORMAT
 62
     0
100
AcDbLine
 10
0.0
 20
0.0
 30
0.0
 11
2.5
 21
0.0
 31
0.0
  0
LINE
  5
176
330
16F
100
AcDbEntity
  8
FORMAT
 62
     0
100
AcDbLine
 10
0.0
 20
5.0
 30
0.0
 11
0.0
 21
18.5
 31
0.0
  0
LINE
  5
177
330
16F
100
AcDbEntity
  8
FORMAT
 62
     0
100
AcDbLine
 10
-5.0
 20
0.0
 30
0.0
 11
-18.5
 21
0.0
 31
0.0
  0
LINE
  5
178
330
16F
100
AcDbEntity
  8
FORMAT
 62
     0
100
AcDbLine
 10
0.0
 20
-5.0
 30
0.0
 11
0.0
 21
-18.5
 31
0.0
  0
LINE
  5
179
330
16F
100
AcDbEntity
  8
FORMAT
 62
     0
100
AcDbLine
 10
5.0
 20
0.0
 30
0.0
 11
18.5
 21
0.0
 31
0.0
  0
ENDBLK
  5
171
330
16F
100
AcDbEntity
  8
0
100
AcDbBlockEnd
  0
BLOCK
  5
17C
330
17B
100
AcDbEntity
  8
0
100
AcDbBlockBegin
  2
SW_CENTERMARKSYMBOL_17
 70
     0
 10
0.0
 20
0.0
 30
0.0
  3
SW_CENTERMARKSYMBOL_17
  1

  0
LINE
  5
17E
330
17B
100
AcDbEntity
  8
FORMAT
 62
     0
100
AcDbLine
 10
0.0
 20
0.0
 30
0.0
 11
0.0
 21
2.5
 31
0.0
  0
LINE
  5
17F
330
17B
100
AcDbEntity
  8
FORMAT
 62
     0
100
AcDbLine
 10
0.0
 20
0.0
 30
0.0
 11
-2.5
 21
0.0
 31
0.0
  0
LINE
  5
180
330
17B
100
AcDbEntity
  8
FORMAT
 62
     0
100
AcDbLine
 10
0.0
 20
0.0
 30
0.0
 11
0.0
 21
-2.5
 31
0.0
  0
LINE
  5
181
330
17B
100
AcDbEntity
  8
FORMAT
 62
     0
100
AcDbLine
 10
0.0
 20
0.0
 30
0.0
 11
2.5
 21
0.0
 31
0.0
  0
LINE
  5
182
330
17B
100
AcDbEntity
  8
FORMAT
 62
     0
100
AcDbLine
 10
0.0
 20
5.0
 30
0.0
 11
0.0
 21
18.5
 31
0.0
  0
LINE
  5
183
330
17B
100
AcDbEntity
  8
FORMAT
 62
     0
100
AcDbLine
 10
-5.0
 20
0.0
 30
0.0
 11
-18.5
 21
0.0
 31
0.0
  0
LINE
  5
184
330
17B
100
AcDbEntity
  8
FORMAT
 62
     0
100
AcDbLine
 10
0.0
 20
-5.0
 30
0.0
 11
0.0
 21
-18.5
 31
0.0
  0
LINE
  5
185
330
17B
100
AcDbEntity
  8
FORMAT
 62
     0
100
AcDbLine
 10
5.0
 20
0.0
 30
0.0
 11
18.5
 21
0.0
 31
0.0
  0
ENDBLK
  5
17D
330
17B
100
AcDbEntity
  8
0
100
AcDbBlockEnd
  0
BLOCK
  5
188
330
187
100
AcDbEntity
  8
0
100
AcDbBlockBegin
  2
SW_CENTERMARKSYMBOL_18
 70
     0
 10
0.0
 20
0.0
 30
0.0
  3
SW_CENTERMARKSYMBOL_18
  1

  0
LINE
  5
18A
330
187
100
AcDbEntity
  8
FORMAT
 62
     0
100
AcDbLine
 10
0.0
 20
0.0
 30
0.0
 11
0.0
 21
2.5
 31
0.0
  0
LINE
  5
18B
330
187
100
AcDbEntity
  8
FORMAT
 62
     0
100
AcDbLine
 10
0.0
 20
0.0
 30
0.0
 11
-2.5
 21
0.0
 31
0.0
  0
LINE
  5
18C
330
187
100
AcDbEntity
  8
FORMAT
 62
     0
100
AcDbLine
 10
0.0
 20
0.0
 30
0.0
 11
0.0
 21
-2.5
 31
0.0
  0
LINE
  5
18D
330
187
100
AcDbEntity
  8
FORMAT
 62
     0
100
AcDbLine
 10
0.0
 20
0.0
 30
0.0
 11
2.5
 21
0.0
 31
0.0
  0
LINE
  5
18E
330
187
100
AcDbEntity
  8
FORMAT
 62
     0
100
AcDbLine
 10
0.0
 20
5.0
 30
0.0
 11
0.0
 21
18.5
 31
0.0
  0
LINE
  5
18F
330
187
100
AcDbEntity
  8
FORMAT
 62
     0
100
AcDbLine
 10
-5.0
 20
0.0
 30
0.0
 11
-18.5
 21
0.0
 31
0.0
  0
LINE
  5
190
330
187
100
AcDbEntity
  8
FORMAT
 62
     0
100
AcDbLine
 10
0.0
 20
-5.0
 30
0.0
 11
0.0
 21
-18.5
 31
0.0
  0
LINE
  5
191
330
187
100
AcDbEntity
  8
FORMAT
 62
     0
100
AcDbLine
 10
5.0
 20
0.0
 30
0.0
 11
18.5
 21
0.0
 31
0.0
  0
ENDBLK
  5
189
330
187
100
AcDbEntity
  8
0
100
AcDbBlockEnd
  0
BLOCK
  5
194
330
193
100
AcDbEntity
  8
0
100
AcDbBlockBegin
  2
SW_CENTERMARKSYMBOL_19
 70
     0
 10
0.0
 20
0.0
 30
0.0
  3
SW_CENTERMARKSYMBOL_19
  1

  0
LINE
  5
196
330
193
100
AcDbEntity
  8
FORMAT
 62
     0
100
AcDbLine
 10
0.0
 20
0.0
 30
0.0
 11
0.0
 21
2.5
 31
0.0
  0
LINE
  5
197
330
193
100
AcDbEntity
  8
FORMAT
 62
     0
100
AcDbLine
 10
0.0
 20
0.0
 30
0.0
 11
-2.5
 21
0.0
 31
0.0
  0
LINE
  5
198
330
193
100
AcDbEntity
  8
FORMAT
 62
     0
100
AcDbLine
 10
0.0
 20
0.0
 30
0.0
 11
0.0
 21
-2.5
 31
0.0
  0
LINE
  5
199
330
193
100
AcDbEntity
  8
FORMAT
 62
     0
100
AcDbLine
 10
0.0
 20
0.0
 30
0.0
 11
2.5
 21
0.0
 31
0.0
  0
LINE
  5
19A
330
193
100
AcDbEntity
  8
FORMAT
 62
     0
100
AcDbLine
 10
0.0
 20
5.0
 30
0.0
 11
0.0
 21
18.5
 31
0.0
  0
LINE
  5
19B
330
193
100
AcDbEntity
  8
FORMAT
 62
     0
100
AcDbLine
 10
-5.0
 20
0.0
 30
0.0
 11
-18.5
 21
0.0
 31
0.0
  0
LINE
  5
19C
330
193
100
AcDbEntity
  8
FORMAT
 62
     0
100
AcDbLine
 10
0.0
 20
-5.0
 30
0.0
 11
0.0
 21
-18.5
 31
0.0
  0
LINE
  5
19D
330
193
100
AcDbEntity
  8
FORMAT
 62
     0
100
AcDbLine
 10
5.0
 20
0.0
 30
0.0
 11
18.5
 21
0.0
 31
0.0
  0
ENDBLK
  5
195
330
193
100
AcDbEntity
  8
0
100
AcDbBlockEnd
  0
BLOCK
  5
1A0
330
19F
100
AcDbEntity
  8
0
100
AcDbBlockBegin
  2
SW_CENTERMARKSYMBOL_20
 70
     0
 10
0.0
 20
0.0
 30
0.0
  3
SW_CENTERMARKSYMBOL_20
  1

  0
LINE
  5
1A2
330
19F
100
AcDbEntity
  8
FORMAT
 62
     0
100
AcDbLine
 10
0.0
 20
0.0
 30
0.0
 11
0.0
 21
2.5
 31
0.0
  0
LINE
  5
1A3
330
19F
100
AcDbEntity
  8
FORMAT
 62
     0
100
AcDbLine
 10
0.0
 20
0.0
 30
0.0
 11
-2.5
 21
0.0
 31
0.0
  0
LINE
  5
1A4
330
19F
100
AcDbEntity
  8
FORMAT
 62
     0
100
AcDbLine
 10
0.0
 20
0.0
 30
0.0
 11
0.0
 21
-2.5
 31
0.0
  0
LINE
  5
1A5
330
19F
100
AcDbEntity
  8
FORMAT
 62
     0
100
AcDbLine
 10
0.0
 20
0.0
 30
0.0
 11
2.5
 21
0.0
 31
0.0
  0
LINE
  5
1A6
330
19F
100
AcDbEntity
  8
FORMAT
 62
     0
100
AcDbLine
 10
0.0
 20
5.0
 30
0.0
 11
0.0
 21
18.5
 31
0.0
  0
LINE
  5
1A7
330
19F
100
AcDbEntity
  8
FORMAT
 62
     0
100
AcDbLine
 10
-5.0
 20
0.0
 30
0.0
 11
-18.5
 21
0.0
 31
0.0
  0
LINE
  5
1A8
330
19F
100
AcDbEntity
  8
FORMAT
 62
     0
100
AcDbLine
 10
0.0
 20
-5.0
 30
0.0
 11
0.0
 21
-18.5
 31
0.0
  0
LINE
  5
1A9
330
19F
100
AcDbEntity
  8
FORMAT
 62
     0
100
AcDbLine
 10
5.0
 20
0.0
 30
0.0
 11
18.5
 21
0.0
 31
0.0
  0
ENDBLK
  5
1A1
330
19F
100
AcDbEntity
  8
0
100
AcDbBlockEnd
  0
ENDSEC
  0
SECTION
  2
ENTITIES
  0
CIRCLE
  5
83
330
1F
100
AcDbEntity
  8
0
  6
Continuous
 62
     7
370
    25
100
AcDbCircle
 10
-77.9615601357
 20
400.9958305661
 30
0.0
 40
16.00000000000001
  0
CIRCLE
  5
84
330
1F
100
AcDbEntity
  8
0
  6
Continuous
 62
     7
370
    25
100
AcDbCircle
 10
-209.6473933367
 20
219.7458305661
 30
0.0
 40
16.00000000000003
  0
CIRCLE
  5
85
330
1F
100
AcDbEntity
  8
0
  6
Continuous
 62
     7
370
    25
100
AcDbCircle
 10
-209.6473933367
 20
-4.2914903558
 30
0.0
 40
16.00000000000003
  0
CIRCLE
  5
86
330
1F
100
AcDbEntity
  8
0
  6
Continuous
 62
     7
370
    25
100
AcDbCircle
 10
-77.9615601357
 20
-185.5414903558
 30
0.0
 40
16.00000000000001
  0
CIRCLE
  5
87
330
1F
100
AcDbEntity
  8
0
  6
Continuous
 62
     7
370
    25
100
AcDbCircle
 10
135.1105938203
 20
-254.7728298949
 30
0.0
 40
16.0
  0
CIRCLE
  5
88
330
1F
100
AcDbEntity
  8
0
  6
Continuous
 62
     7
370
    25
100
AcDbCircle
 10
348.1827477764
 20
-185.5414903558
 30
0.0
 40
16.0
  0
CIRCLE
  5
89
330
1F
100
AcDbEntity
  8
0
  6
Continuous
 62
     7
370
    25
100
AcDbCircle
 10
479.8685809774
 20
-4.2914903558
 30
0.0
 40
16.0
  0
CIRCLE
  5
8A
330
1F
100
AcDbEntity
  8
0
  6
Continuous
 62
     7
370
    25
100
AcDbCircle
 10
428.3792542814
 20
320.7993240612
 30
0.0
 40
16.0
  0
CIRCLE
  5
8B
330
1F
100
AcDbEntity
  8
0
  6
Continuous
 62
     7
370
    25
100
AcDbCircle
 10
247.1292542813
 20
452.4851572622
 30
0.0
 40
15.99999999999994
  0
CIRCLE
  5
8C
330
1F
100
AcDbEntity
  8
0
  6
Continuous
 62
     7
370
    25
100
AcDbCircle
 10
135.1105938204
 20
470.2271701052
 30
0.0
 40
16.0
  0
CIRCLE
  5
8D
330
1F
100
AcDbEntity
  8
0
  6
Continuous
 62
     7
370
    25
100
AcDbCircle
 10
135.1105938204
 20
107.7271701052
 30
0.0
 40
398.5
  0
CIRCLE
  5
8E
330
1F
100
AcDbEntity
  8
0
  6
Continuous
 62
     7
370
    25
100
AcDbCircle
 10
135.1105938204
 20
107.7271701052
 30
0.0
 40
310.0
  0
CIRCLE
  5
8F
330
1F
100
AcDbEntity
  8
0
  6
Continuous
 62
     7
370
    25
100
AcDbCircle
 10
479.8685809774
 20
219.7458305661
 30
0.0
 40
16.0
  0
CIRCLE
  5
90
330
1F
100
AcDbEntity
  8
0
  6
Continuous
 62
     7
370
    25
100
AcDbCircle
 10
348.1827477765
 20
400.9958305661
 30
0.0
 40
16.0
  0
CIRCLE
  5
91
330
1F
100
AcDbEntity
  8
0
  6
Continuous
 62
     7
370
    25
100
AcDbCircle
 10
497.6105938204
 20
107.7271701051
 30
0.0
 40
16.00000000000006
  0
CIRCLE
  5
92
330
1F
100
AcDbEntity
  8
0
  6
Continuous
 62
     7
370
    25
100
AcDbCircle
 10
428.3792542813
 20
-105.3449838509
 30
0.0
 40
16.0
  0
CIRCLE
  5
93
330
1F
100
AcDbEntity
  8
0
  6
Continuous
 62
     7
370
    25
100
AcDbCircle
 10
247.1292542813
 20
-237.0308170519
 30
0.0
 40
16.00000000000003
  0
CIRCLE
  5
94
330
1F
100
AcDbEntity
  8
0
  6
Continuous
 62
     7
370
    25
100
AcDbCircle
 10
23.0919333594
 20
-237.0308170519
 30
0.0
 40
16.0
  0
CIRCLE
  5
95
330
1F
100
AcDbEntity
  8
0
  6
Continuous
 62
     7
370
    25
100
AcDbCircle
 10
-158.1580666406
 20
-105.3449838509
 30
0.0
 40
16.0
  0
CIRCLE
  5
96
330
1F
100
AcDbEntity
  8
0
  6
Continuous
 62
     7
370
    25
100
AcDbCircle
 10
-227.3894061797
 20
107.7271701052
 30
0.0
 40
16.00000000000003
  0
CIRCLE
  5
97
330
1F
100
AcDbEntity
  8
0
  6
Continuous
 62
     7
370
    25
100
AcDbCircle
 10
-158.1580666406
 20
320.7993240612
 30
0.0
 40
16.0
  0
CIRCLE
  5
98
330
1F
100
AcDbEntity
  8
0
  6
Continuous
 62
     7
370
    25
100
AcDbCircle
 10
23.0919333595
 20
452.4851572622
 30
0.0
 40
16.0
  0
CIRCLE
  5
99
330
1F
100
AcDbEntity
  8
0
  6
Continuous
 62
     7
370
    25
100
AcDbCircle
 10
428.3792542813
 20
-105.3449838509
 30
0.0
 40
15.0
  0
CIRCLE
  5
9A
330
1F
100
AcDbEntity
  8
0
  6
Continuous
 62
     7
370
    25
100
AcDbCircle
 10
497.6105938204
 20
107.7271701051
 30
0.0
 40
15.00000000000006
  0
CIRCLE
  5
9B
330
1F
100
AcDbEntity
  8
0
  6
Continuous
 62
     7
370
    25
100
AcDbCircle
 10
348.1827477765
 20
400.9958305661
 30
0.0
 40
15.00000000000006
  0
CIRCLE
  5
9C
330
1F
100
AcDbEntity
  8
0
  6
Continuous
 62
     7
370
    25
100
AcDbCircle
 10
479.8685809774
 20
219.7458305661
 30
0.0
 40
15.0
  0
CIRCLE
  5
9D
330
1F
100
AcDbEntity
  8
0
  6
Continuous
 62
     7
370
    25
100
AcDbCircle
 10
135.1105938204
 20
107.7271701052
 30
0.0
 40
309.0
  0
CIRCLE
  5
9E
330
1F
100
AcDbEntity
  8
0
  6
Continuous
 62
     7
370
    25
100
AcDbCircle
 10
135.1105938204
 20
107.7271701052
 30
0.0
 40
399.5
  0
CIRCLE
  5
9F
330
1F
100
AcDbEntity
  8
0
  6
Continuous
 62
     7
370
    25
100
AcDbCircle
 10
135.1105938204
 20
470.2271701052
 30
0.0
 40
15.0
  0
CIRCLE
  5
A0
330
1F
100
AcDbEntity
  8
0
  6
Continuous
 62
     7
370
    25
100
AcDbCircle
 10
247.1292542813
 20
452.4851572622
 30
0.0
 40
15.0
  0
CIRCLE
  5
A1
330
1F
100
AcDbEntity
  8
0
  6
Continuous
 62
     7
370
    25
100
AcDbCircle
 10
428.3792542814
 20
320.7993240612
 30
0.0
 40
15.0
  0
CIRCLE
  5
A2
330
1F
100
AcDbEntity
  8
0
  6
Continuous
 62
     7
370
    25
100
AcDbCircle
 10
479.8685809774
 20
-4.2914903558
 30
0.0
 40
15.0
  0
CIRCLE
  5
A3
330
1F
100
AcDbEntity
  8
0
  6
Continuous
 62
     7
370
    25
100
AcDbCircle
 10
348.1827477764
 20
-185.5414903558
 30
0.0
 40
15.00000000000006
  0
CIRCLE
  5
A4
330
1F
100
AcDbEntity
  8
0
  6
Continuous
 62
     7
370
    25
100
AcDbCircle
 10
23.0919333595
 20
452.4851572622
 30
0.0
 40
15.0
  0
CIRCLE
  5
A5
330
1F
100
AcDbEntity
  8
0
  6
Continuous
 62
     7
370
    25
100
AcDbCircle
 10
-158.1580666406
 20
320.7993240612
 30
0.0
 40
15.0
  0
CIRCLE
  5
A6
330
1F
100
AcDbEntity
  8
0
  6
Continuous
 62
     7
370
    25
100
AcDbCircle
 10
-227.3894061797
 20
107.7271701052
 30
0.0
 40
15.00000000000003
  0
CIRCLE
  5
A7
330
1F
100
AcDbEntity
  8
0
  6
Continuous
 62
     7
370
    25
100
AcDbCircle
 10
-158.1580666406
 20
-105.3449838509
 30
0.0
 40
15.0
  0
CIRCLE
  5
A8
330
1F
100
AcDbEntity
  8
0
  6
Continuous
 62
     7
370
    25
100
AcDbCircle
 10
23.0919333594
 20
-237.0308170519
 30
0.0
 40
15.0
  0
CIRCLE
  5
A9
330
1F
100
AcDbEntity
  8
0
  6
Continuous
 62
     7
370
    25
100
AcDbCircle
 10
247.1292542813
 20
-237.0308170519
 30
0.0
 40
15.00000000000003
  0
CIRCLE
  5
AA
330
1F
100
AcDbEntity
  8
0
  6
Continuous
 62
     7
370
    25
100
AcDbCircle
 10
-77.9615601357
 20
-185.5414903558
 30
0.0
 40
15.00000000000004
  0
CIRCLE
  5
AB
330
1F
100
AcDbEntity
  8
0
  6
Continuous
 62
     7
370
    25
100
AcDbCircle
 10
-209.6473933367
 20
-4.2914903558
 30
0.0
 40
15.00000000000003
  0
CIRCLE
  5
AC
330
1F
100
AcDbEntity
  8
0
  6
Continuous
 62
     7
370
    25
100
AcDbCircle
 10
-209.6473933367
 20
219.7458305661
 30
0.0
 40
15.00000000000003
  0
CIRCLE
  5
AD
330
1F
100
AcDbEntity
  8
0
  6
Continuous
 62
     7
370
    25
100
AcDbCircle
 10
135.1105938203
 20
-254.7728298949
 30
0.0
 40
15.0
  0
CIRCLE
  5
AE
330
1F
100
AcDbEntity
  8
0
  6
Continuous
 62
     7
370
    25
100
AcDbCircle
 10
-77.9615601357
 20
400.9958305661
 30
0.0
 40
15.00000000000004
  0
INSERT
  5
BA
330
1F
100
AcDbEntity
  8
FORMAT
 62
     7
100
AcDbBlockReference
  2
SW_CENTERMARKSYMBOL_0
 10
135.1105938204
 20
107.7271701052
 30
0.0
  0
INSERT
  5
C6
330
1F
100
AcDbEntity
  8
FORMAT
 62
     7
100
AcDbBlockReference
  2
SW_CENTERMARKSYMBOL_1
 10
135.1105938204
 20
470.2271701052
 30
0.0
  0
INSERT
  5
D2
330
1F
100
AcDbEntity
  8
FORMAT
 62
     7
100
AcDbBlockReference
  2
SW_CENTERMARKSYMBOL_2
 10
247.1292542813
 20
452.4851572622
 30
0.0
  0
INSERT
  5
DE
330
1F
100
AcDbEntity
  8
FORMAT
 62
     7
100
AcDbBlockReference
  2
SW_CENTERMARKSYMBOL_3
 10
348.1827477765
 20
400.9958305661
 30
0.0
  0
INSERT
  5
EA
330
1F
100
AcDbEntity
  8
FORMAT
 62
     7
100
AcDbBlockReference
  2
SW_CENTERMARKSYMBOL_4
 10
428.3792542814
 20
320.7993240612
 30
0.0
  0
INSERT
  5
F6
330
1F
100
AcDbEntity
  8
FORMAT
 62
     7
100
AcDbBlockReference
  2
SW_CENTERMARKSYMBOL_5
 10
-158.1580666406
 20
-105.3449838509
 30
0.0
  0
INSERT
  5
102
330
1F
100
AcDbEntity
  8
FORMAT
 62
     7
100
AcDbBlockReference
  2
SW_CENTERMARKSYMBOL_6
 10
-227.3894061797
 20
107.7271701052
 30
0.0
  0
INSERT
  5
10E
330
1F
100
AcDbEntity
  8
FORMAT
 62
     7
100
AcDbBlockReference
  2
SW_CENTERMARKSYMBOL_7
 10
-158.1580666406
 20
320.7993240612
 30
0.0
  0
INSERT
  5
11A
330
1F
100
AcDbEntity
  8
FORMAT
 62
     7
100
AcDbBlockReference
  2
SW_CENTERMARKSYMBOL_8
 10
23.0919333595
 20
452.4851572622
 30
0.0
  0
INSERT
  5
126
330
1F
100
AcDbEntity
  8
FORMAT
 62
     7
100
AcDbBlockReference
  2
SW_CENTERMARKSYMBOL_9
 10
428.3792542813
 20
-105.3449838509
 30
0.0
  0
INSERT
  5
132
330
1F
100
AcDbEntity
  8
FORMAT
 62
     7
100
AcDbBlockReference
  2
SW_CENTERMARKSYMBOL_10
 10
479.8685809774
 20
-4.2914903558
 30
0.0
  0
INSERT
  5
13E
330
1F
100
AcDbEntity
  8
FORMAT
 62
     7
100
AcDbBlockReference
  2
SW_CENTERMARKSYMBOL_11
 10
497.6105938204
 20
107.7271701051
 30
0.0
  0
INSERT
  5
14A
330
1F
100
AcDbEntity
  8
FORMAT
 62
     7
100
AcDbBlockReference
  2
SW_CENTERMARKSYMBOL_12
 10
479.8685809774
 20
219.7458305661
 30
0.0
  0
INSERT
  5
156
330
1F
100
AcDbEntity
  8
FORMAT
 62
     7
100
AcDbBlockReference
  2
SW_CENTERMARKSYMBOL_13
 10
-77.9615601357
 20
400.9958305661
 30
0.0
  0
INSERT
  5
162
330
1F
100
AcDbEntity
  8
FORMAT
 62
     7
100
AcDbBlockReference
  2
SW_CENTERMARKSYMBOL_14
 10
-209.6473933367
 20
219.7458305661
 30
0.0
  0
INSERT
  5
16E
330
1F
100
AcDbEntity
  8
FORMAT
 62
     7
100
AcDbBlockReference
  2
SW_CENTERMARKSYMBOL_15
 10
-209.6473933367
 20
-4.2914903558
 30
0.0
  0
INSERT
  5
17A
330
1F
100
AcDbEntity
  8
FORMAT
 62
     7
100
AcDbBlockReference
  2
SW_CENTERMARKSYMBOL_16
 10
-77.9615601357
 20
-185.5414903558
 30
0.0
  0
INSERT
  5
186
330
1F
100
AcDbEntity
  8
FORMAT
 62
     7
100
AcDbBlockReference
  2
SW_CENTERMARKSYMBOL_17
 10
23.0919333594
 20
-237.0308170519
 30
0.0
  0
INSERT
  5
192
330
1F
100
AcDbEntity
  8
FORMAT
 62
     7
100
AcDbBlockReference
  2
SW_CENTERMARKSYMBOL_18
 10
135.1105938203
 20
-254.7728298949
 30
0.0
  0
INSERT
  5
19E
330
1F
100
AcDbEntity
  8
FORMAT
 62
     7
100
AcDbBlockReference
  2
SW_CENTERMARKSYMBOL_19
 10
247.1292542813
 20
-237.0308170519
 30
0.0
  0
INSERT
  5
1AA
330
1F
100
AcDbEntity
  8
FORMAT
 62
     7
100
AcDbBlockReference
  2
SW_CENTERMARKSYMBOL_20
 10
348.1827477764
 20
-185.5414903558
 30
0.0
  0
LINE
  5
1AB
330
1F
100
AcDbEntity
  8
0
  6
Continuous
 62
     7
370
    25
100
AcDbLine
 10
-891.1469015242
 20
507.2271701052
 30
0.0
 11
-939.1469015242
 21
507.2271701052
 31
0.0
  0
LINE
  5
1AC
330
1F
100
AcDbEntity
  8
0
  6
Continuous
 62
     7
370
    25
100
AcDbLine
 10
-939.1469015242
 20
-291.7728298948
 30
0.0
 11
-891.1469015242
 21
-291.7728298948
 31
0.0
  0
ARC
  5
1AD
330
1F
100
AcDbEntity
  8
0
  6
Continuous
 62
     7
370
    25
100
AcDbCircle
 10
-891.1469015242
 20
-290.7728298948
 30
0.0
 40
1.0
100
AcDbArc
 50
270.0
 51
0.0
  0
ARC
  5
1AE
330
1F
100
AcDbEntity
  8
0
  6
Continuous
 62
     7
370
    25
100
AcDbCircle
 10
-891.1469015242
 20
506.2271701052
 30
0.0
 40
1.0
100
AcDbArc
 50
0.0
 51
90.0
  0
ARC
  5
1AF
330
1F
100
AcDbEntity
  8
0
  6
Continuous
 62
     7
370
    25
100
AcDbCircle
 10
-939.1469015242
 20
-290.7728298948
 30
0.0
 40
1.0
100
AcDbArc
 50
180.0
 51
270.0
  0
ARC
  5
1B0
330
1F
100
AcDbEntity
  8
0
  6
Continuous
 62
     7
370
    25
100
AcDbCircle
 10
-939.1469015242
 20
506.2271701052
 30
0.0
 40
1.0
100
AcDbArc
 50
90.0
 51
180.0
  0
LINE
  5
1B1
330
1F
100
AcDbEntity
  8
0
  6
Continuous
 62
     7
370
    25
100
AcDbLine
 10
-890.1469015242
 20
107.7271701052
 30
0.0
 11
-890.1469015242
 21
-290.7728298948
 31
0.0
  0
LINE
  5
1B2
330
1F
100
AcDbEntity
  8
0
  6
Continuous
 62
     7
370
    25
100
AcDbLine
 10
-890.1469015242
 20
506.2271701052
 30
0.0
 11
-890.1469015242
 21
107.7271701052
 31
0.0
  0
LINE
  5
1B3
330
1F
100
AcDbEntity
  8
0
  6
Continuous
 62
     7
370
    25
100
AcDbLine
 10
-940.1469015242
 20
107.7271701052
 30
0.0
 11
-940.1469015242
 21
506.2271701052
 31
0.0
  0
LINE
  5
1B4
330
1F
100
AcDbEntity
  8
0
  6
Continuous
 62
     7
370
    25
100
AcDbLine
 10
-940.1469015242
 20
-290.7728298948
 30
0.0
 11
-940.1469015242
 21
107.7271701052
 31
0.0
  0
LINE
  5
1B5
330
1F
100
AcDbEntity
  8
0
  6
Continuous
 62
     1
370
    25
100
AcDbLine
 10
-939.1469015242
 20
107.7271701052
 30
0.0
 11
-939.1469015242
 21
-291.7728298948
 31
0.0
  0
LINE
  5
1B6
330
1F
100
AcDbEntity
  8
0
  6
Continuous
 62
     1
370
    25
100
AcDbLine
 10
-939.1469015242
 20
507.2271701052
 30
0.0
 11
-939.1469015242
 21
107.7271701052
 31
0.0
  0
LINE
  5
1B7
330
1F
100
AcDbEntity
  8
0
  6
Continuous
 62
     1
370
    25
100
AcDbLine
 10
-891.1469015242
 20
107.7271701052
 30
0.0
 11
-891.1469015242
 21
507.2271701052
 31
0.0
  0
LINE
  5
1B8
330
1F
100
AcDbEntity
  8
0
  6
Continuous
 62
     1
370
    25
100
AcDbLine
 10
-891.1469015242
 20
-291.7728298948
 30
0.0
 11
-891.1469015242
 21
107.7271701052
 31
0.0
  0
LINE
  5
1B9
330
1F
100
AcDbEntity
  8
0
  6
Continuous
 62
     7
370
    25
100
AcDbLine
 10
1176.6669586065
 20
-291.7728298948
 30
0.0
 11
1224.6669586065
 21
-291.7728298948
 31
0.0
  0
LINE
  5
1BA
330
1F
100
AcDbEntity
  8
0
  6
Continuous
 62
     7
370
    25
100
AcDbLine
 10
1224.6669586065
 20
507.2271701052
 30
0.0
 11
1176.6669586065
 21
507.2271701052
 31
0.0
  0
ARC
  5
1BB
330
1F
100
AcDbEntity
  8
0
  6
Continuous
 62
     7
370
    25
100
AcDbCircle
 10
1176.6669586065
 20
506.2271701052
 30
0.0
 40
1.0
100
AcDbArc
 50
90.0
 51
180.0
  0
ARC
  5
1BC
330
1F
100
AcDbEntity
  8
0
  6
Continuous
 62
     7
370
    25
100
AcDbCircle
 10
1176.6669586065
 20
-290.7728298948
 30
0.0
 40
1.0
100
AcDbArc
 50
180.0
 51
270.0
  0
ARC
  5
1BD
330
1F
100
AcDbEntity
  8
0
  6
Continuous
 62
     7
370
    25
100
AcDbCircle
 10
1224.6669586065
 20
506.2271701052
 30
0.0
 40
1.0
100
AcDbArc
 50
0.0
 51
90.0
  0
ARC
  5
1BE
330
1F
100
AcDbEntity
  8
0
  6
Continuous
 62
     7
370
    25
100
AcDbCircle
 10
1224.6669586065
 20
-290.7728298948
 30
0.0
 40
1.0
100
AcDbArc
 50
270.0
 51
0.0
  0
LINE
  5
1BF
330
1F
100
AcDbEntity
  8
0
  6
Continuous
 62
     7
370
    25
100
AcDbLine
 10
1175.6669586065
 20
-290.7728298948
 30
0.0
 11
1175.6669586065
 21
506.2271701052
 31
0.0
  0
LINE
  5
1C0
330
1F
100
AcDbEntity
  8
0
  6
Continuous
 62
     7
370
    25
100
AcDbLine
 10
1225.6669586065
 20
506.2271701052
 30
0.0
 11
1225.6669586065
 21
-290.7728298948
 31
0.0
  0
LINE
  5
1C1
330
1F
100
AcDbEntity
  8
0
  6
Continuous
 62
     1
370
    25
100
AcDbLine
 10
1224.6669586065
 20
-291.7728298948
 30
0.0
 11
1224.6669586065
 21
507.2271701052
 31
0.0
  0
LINE
  5
1C2
330
1F
100
AcDbEntity
  8
0
  6
Continuous
 62
     1
370
    25
100
AcDbLine
 10
1176.6669586065
 20
507.2271701052
 30
0.0
 11
1176.6669586065
 21
-291.7728298948
 31
0.0
  0
LINE
  5
1C3
330
1F
100
AcDbEntity
  8
0
  6
Continuous
 62
     7
370
    25
100
AcDbLine
 10
534.6105938204
 20
848.1805576219
 30
0.0
 11
534.6105938204
 21
896.1805576219
 31
0.0
  0
LINE
  5
1C4
330
1F
100
AcDbEntity
  8
0
  6
Continuous
 62
     7
370
    25
100
AcDbLine
 10
-264.3894061796
 20
896.1805576219
 30
0.0
 11
-264.3894061796
 21
848.1805576219
 31
0.0
  0
ARC
  5
1C5
330
1F
100
AcDbEntity
  8
0
  6
Continuous
 62
     7
370
    25
100
AcDbCircle
 10
-263.3894061796
 20
848.1805576219
 30
0.0
 40
1.0
100
AcDbArc
 50
180.0
 51
270.0
  0
ARC
  5
1C6
330
1F
100
AcDbEntity
  8
0
  6
Continuous
 62
     7
370
    25
100
AcDbCircle
 10
533.6105938204
 20
848.1805576219
 30
0.0
 40
1.0
100
AcDbArc
 50
270.0
 51
0.0
  0
ARC
  5
1C7
330
1F
100
AcDbEntity
  8
0
  6
Continuous
 62
     7
370
    25
100
AcDbCircle
 10
-263.3894061796
 20
896.1805576219
 30
0.0
 40
1.0
100
AcDbArc
 50
90.0
 51
180.0
  0
ARC
  5
1C8
330
1F
100
AcDbEntity
  8
0
  6
Continuous
 62
     7
370
    25
100
AcDbCircle
 10
533.6105938204
 20
896.1805576219
 30
0.0
 40
1.0
100
AcDbArc
 50
0.0
 51
90.0
  0
LINE
  5
1C9
330
1F
100
AcDbEntity
  8
0
  6
Continuous
 62
     7
370
    25
100
AcDbLine
 10
533.6105938204
 20
847.1805576219
 30
0.0
 11
-263.3894061796
 21
847.1805576219
 31
0.0
  0
LINE
  5
1CA
330
1F
100
AcDbEntity
  8
0
  6
Continuous
 62
     7
370
    25
100
AcDbLine
 10
-263.3894061796
 20
897.1805576219
 30
0.0
 11
533.6105938204
 21
897.1805576219
 31
0.0
  0
LINE
  5
1CB
330
1F
100
AcDbEntity
  8
0
  6
Continuous
 62
     1
370
    25
100
AcDbLine
 10
534.6105938204
 20
896.1805576219
 30
0.0
 11
-264.3894061796
 21
896.1805576219
 31
0.0
  0
LINE
  5
1CC
330
1F
100
AcDbEntity
  8
0
  6
Continuous
 62
     1
370
    25
100
AcDbLine
 10
-264.3894061796
 20
848.1805576219
 30
0.0
 11
534.6105938204
 21
848.1805576219
 31
0.0
  0
LINE
  5
1CD
330
1F
100
AcDbEntity
  8
0
  6
Continuous
 62
     7
370
    25
100
AcDbLine
 10
-264.3894061796
 20
-792.752333139
 30
0.0
 11
-264.3894061796
 21
-840.752333139
 31
0.0
  0
LINE
  5
1CE
330
1F
100
AcDbEntity
  8
0
  6
Continuous
 62
     7
370
    25
100
AcDbLine
 10
534.6105938204
 20
-840.752333139
 30
0.0
 11
534.6105938204
 21
-792.752333139
 31
0.0
  0
ARC
  5
1CF
330
1F
100
AcDbEntity
  8
0
  6
Continuous
 62
     7
370
    25
100
AcDbCircle
 10
533.6105938204
 20
-792.752333139
 30
0.0
 40
1.0
100
AcDbArc
 50
0.0
 51
90.0
  0
ARC
  5
1D0
330
1F
100
AcDbEntity
  8
0
  6
Continuous
 62
     7
370
    25
100
AcDbCircle
 10
-263.3894061796
 20
-792.752333139
 30
0.0
 40
1.0
100
AcDbArc
 50
90.0
 51
180.0
  0
ARC
  5
1D1
330
1F
100
AcDbEntity
  8
0
  6
Continuous
 62
     7
370
    25
100
AcDbCircle
 10
533.6105938204
 20
-840.752333139
 30
0.0
 40
1.0
100
AcDbArc
 50
270.0
 51
0.0
  0
ARC
  5
1D2
330
1F
100
AcDbEntity
  8
0
  6
Continuous
 62
     7
370
    25
100
AcDbCircle
 10
-263.3894061796
 20
-840.752333139
 30
0.0
 40
1.0
100
AcDbArc
 50
180.0
 51
270.0
  0
LINE
  5
1D3
330
1F
100
AcDbEntity
  8
0
  6
Continuous
 62
     7
370
    25
100
AcDbLine
 10
533.6105938204
 20
-791.752333139
 30
0.0
 11
-263.3894061796
 21
-791.752333139
 31
0.0
  0
LINE
  5
1D4
330
1F
100
AcDbEntity
  8
0
  6
Continuous
 62
     7
370
    25
100
AcDbLine
 10
533.6105938204
 20
-841.752333139
 30
0.0
 11
-263.3894054693
 21
-841.752333139
 31
0.0
  0
LINE
  5
1D5
330
1F
100
AcDbEntity
  8
0
  6
Continuous
 62
     1
370
    25
100
AcDbLine
 10
-264.3894061796
 20
-840.752333139
 30
0.0
 11
534.6105938204
 21
-840.752333139
 31
0.0
  0
LINE
  5
1D6
330
1F
100
AcDbEntity
  8
0
  6
Continuous
 62
     1
370
    25
100
AcDbLine
 10
534.6105938204
 20
-792.752333139
 30
0.0
 11
-264.3894061796
 21
-792.752333139
 31
0.0
  0
SPLINE
  5
1D7
330
1F
100
AcDbEntity
  8
0
  6
Continuous
 62
     7
370
    25
100
AcDbSpline
210
0.0
220
0.0
230
1.0
 70
     8
 71
     3
 72
   101
 73
    97
 74
     0
 42
0.00000001
 43
0.00000001
 40
0.0
 40
0.0
 40
0.0
 40
0.0
 40
0.0036421813546408
 40
0.0143816190436053
 40
0.025123180278767
 40
0.0358667868048456
 40
0.0466123212200538
 40
0.0573596372592619
 40
0.0681085695204178
 40
0.0788589421535112
 40
0.0896105762305143
 40
0.1003632956854449
 40
0.1111169318457821
 40
0.1218713266675227
 40
0.1326263348405837
 40
0.1433818249552251
 40
0.1541376799220763
 40
0.1648937968253761
 40
0.1756500863675057
 40
0.186406472037716
 40
0.1971628832941721
 40
0.2079192560841143
 40
0.2186755489561802
 40
0.2294317286120139
 40
0.2401877688940585
 40
0.2509436498496529
 40
0.261699356878975
 40
0.2724548799694479
 40
0.2832102130154651
 40
0.2939653532194273
 40
0.3047203005687485
 40
0.3154750573823872
 40
0.3262296279202825
 40
0.3369840180489387
 40
0.3477382349567457
 40
0.358492286913011
 40
0.3692461830650865
 40
0.3799999332686167
 40
0.390753547946324
 40
0.4015070379713294
 40
0.4122604145714446
 40
0.4230136892513245
 40
0.4337668737297025
 40
0.444519979889364
 40
0.4552730197376891
 40
0.4660260053759824
 40
0.4767789489759446
 40
0.4875318627618168
 40
0.4982847589969556
 40
0.509037649973604
 40
0.5197905470286468
 40
0.530543459360108
 40
0.5412963993043468
 40
0.5520493791996924
 40
0.562802411377157
 40
0.5735555081486916
 40
0.5843086817915991
 40
0.5950619445278542
 40
0.6058153084970018
 40
0.6165687857210078
 40
0.627322388059393
 40
0.638076127152581
 40
0.648830014351254
 40
0.65958406062904
 40
0.6703382764755993
 40
0.6810926717667244
 40
0.6918472556075543
 40
0.7026020361445827
 40
0.7133570203415757
 40
0.7241122137139795
 40
0.7348676200158648
 40
0.7456232408730231
 40
0.7563790753554182
 40
0.7671351194820837
 40
0.7778913656516029
 40
0.7886478019919354
 40
0.799404411624495
 40
0.8101611718393946
 40
0.8209180531819928
 40
0.8316750184555234
 40
0.842432018779597
 40
0.8531889801572573
 40
0.8639458316679131
 40
0.8747024898515456
 40
0.8854588577334003
 40
0.8962148240632298
 40
0.9069702628883705
 40
0.9177250336073268
 40
0.9284789816751643
 40
0.9392319401511169
 40
0.9499837322862483
 40
0.9607341753384976
 40
0.9714830857655428
 40
0.9822302858748033
 40
0.9929756118991021
 40
1.0
 40
1.0
 40
1.0
 40
1.0
 10
1272.309990012972
 20
-380.1739778791526
 30
0.0
 10
1271.534760436357
 20
-380.0927572022936
 30
0.0
 10
1268.473667273599
 20
-379.7720469686963
 30
0.0
 10
1263.013312767524
 20
-379.5073880021504
 30
0.0
 10
1255.934771392625
 20
-379.3823027529258
 30
0.0
 10
1248.74929211476
 20
-379.5660132231229
 30
0.0
 10
1241.47236804543
 20
-380.0331409995269
 30
0.0
 10
1234.107187925681
 20
-380.790128887562
 30
0.0
 10
1226.660337628446
 20
-381.8345858247031
 30
0.0
 10
1219.13758123887
 20
-383.1661834970179
 30
0.0
 10
1211.544981597402
 20
-384.783737262451
 30
0.0
 10
1203.888590364369
 20
-386.6859908830645
 30
0.0
 10
1196.174522153467
 20
-388.8714093332078
 30
0.0
 10
1188.408926442646
 20
-391.3382379494681
 30
0.0
 10
1180.597987550664
 20
-394.0844905137602
 30
0.0
 10
1172.747917684584
 20
-397.1079565464997
 30
0.0
 10
1164.864952337784
 20
-400.4062035127932
 30
0.0
 10
1156.95534544708
 20
-403.976580387258
 30
0.0
 10
1149.025364903091
 20
-407.8162208159553
 30
0.0
 10
1141.081289597121
 20
-411.9220455970373
 30
0.0
 10
1133.129406177465
 20
-416.2907650123052
 30
0.0
 10
1125.176001578216
 20
-420.9188834114184
 30
0.0
 10
1117.227357391076
 20
-425.802703417566
 30
0.0
 10
1109.289744646283
 20
-430.9383301511926
 30
0.0
 10
1101.369422808774
 20
-436.3216726082405
 30
0.0
 10
1093.472635430064
 20
-441.9484469208481
 30
0.0
 10
1085.605605750459
 20
-447.8141797063113
 30
0.0
 10
1077.774532254503
 20
-453.9142115178819
 30
0.0
 10
1069.985584184797
 20
-460.2437004084736
 30
0.0
 10
1062.244897021066
 20
-466.7976256158144
 30
0.0
 10
1054.55856793249
 20
-473.5707913752605
 30
0.0
 10
1046.932651211845
 20
-480.5578308645025
 30
0.0
 10
1039.373153700275
 20
-487.753210282605
 30
0.0
 10
1031.886030211464
 20
-495.1512330643731
 30
0.0
 10
1024.477178963767
 20
-502.7460442297702
 30
0.0
 10
1017.15243702856
 20
-510.5316348671055
 30
0.0
 10
1009.917575802668
 20
-518.501846747867
 30
0.0
 10
1002.778296512317
 20
-526.6503770703835
 30
0.0
 10
995.7402257556527
 20
-534.9707833289712
 30
0.0
 10
988.8089110904257
 20
-543.4564883047548
 30
0.0
 10
981.9898166730767
 20
-552.1007851740217
 30
0.0
 10
975.2883189550626
 20
-560.8968427296769
 30
0.0
 10
968.7097024419287
 20
-569.8377107111469
 30
0.0
 10
962.2591555203295
 20
-578.9163252378852
 30
0.0
 10
955.9417663578913
 20
-588.1255143415069
 30
0.0
 10
949.7625188805687
 20
-597.4580035914386
 30
0.0
 10
943.7262888319005
 20
-606.9064218088753
 30
0.0
 10
937.8378399183518
 20
-616.4633068637505
 30
0.0
 10
932.1018200447497
 20
-626.1211115493238
 30
0.0
 10
926.5227578124346
 20
-635.8722092338802
 30
0.0
 10
921.1050592808265
 20
-645.7088992034456
 30
0.0
 10
915.8530038955283
 20
-655.6234136600461
 30
0.0
 10
910.7707409671187
 20
-665.6079241711875
 30
0.0
 10
905.8622861252352
 20
-675.6545485464092
 30
0.0
 10
901.1315186949802
 20
-685.7553561072011
 30
0.0
 10
896.5821786614152
 20
-695.9023739488953
 30
0.0
 10
892.217863750298
 20
-706.0875932346376
 30
0.0
 10
888.0420266277558
 20
-716.3029755151545
 30
0.0
 10
884.0579722213835
 20
-726.5404590680088
 30
0.0
 10
880.2688551650508
 20
-736.7919652498977
 30
0.0
 10
876.677677369531
 20
-747.0494048553562
 30
0.0
 10
873.2872857208025
 20
-757.304684475083
 30
0.0
 10
870.1003699076377
 20
-767.5497128468754
 30
0.0
 10
867.1194603797617
 20
-777.7764071919731
 30
0.0
 10
864.3469264375129
 20
-787.976699529388
 30
0.0
 10
861.784974453506
 20
-798.1425429605508
 30
0.0
 10
859.435646226278
 20
-808.2659179163999
 30
0.0
 10
857.3008174653205
 20
-818.3388383587866
 30
0.0
 10
855.3821964061572
 20
-828.3533579279127
 30
0.0
 10
853.6813225533158
 20
-838.3015760273294
 30
0.0
 10
852.1995655480328
 20
-848.1756438379883
 30
0.0
 10
850.938124156408
 20
-857.9677702528396
 30
0.0
 10
849.8980253723877
 20
-867.6702277237123
 30
0.0
 10
849.0801236284735
 20
-877.2753580125994
 30
0.0
 10
848.4851001053712
 20
-886.7755778402455
 30
0.0
 10
848.1134621299796
 20
-896.1633844260431
 30
0.0
 10
847.9655426491805
 20
-905.4313609149348
 30
0.0
 10
848.0414997649597
 20
-914.5721816892989
 30
0.0
 10
848.3413163144739
 20
-923.57861756705
 30
0.0
 10
848.864799430847
 20
-932.4435401019366
 30
0.0
 10
849.6115796975598
 20
-941.1599225475918
 30
0.0
 10
850.5811104958831
 20
-949.7208490037513
 30
0.0
 10
851.7726675558972
 20
-958.119520082325
 30
0.0
 10
853.1853492871774
 20
-966.3492614645282
 30
0.0
 10
854.8180757963609
 20
-974.4035250526236
 30
0.0
 10
856.6695887446558
 20
-982.275893478959
 30
0.0
 10
858.7384491916272
 20
-989.960087225886
 30
0.0
 10
861.0230429478556
 20
-997.4499628087912
 30
0.0
 10
863.5215581267701
 20
-1004.739545434735
 30
0.0
 10
866.2320670047687
 20
-1011.822934453497
 30
0.0
 10
869.1522197011152
 20
-1018.694685202261
 30
0.0
 10
872.2803880032365
 20
-1025.348415110682
 30
0.0
 10
875.6114006328376
 20
-1031.782037618795
 30
0.0
 10
879.1524624888553
 20
-1037.978267779229
 30
0.0
 10
882.4356094604644
 20
-1043.285298473363
 30
0.0
 10
884.6208144315092
 20
-1046.42375104881
 30
0.0
 10
885.484628429218
 20
-1047.66438490318
 30
0.0
  0
LINE
  5
1D8
330
1F
100
AcDbEntity
  8
0
  6
Continuous
 62
     7
370
    25
100
AcDbLine
 10
1364.4569085189
 20
-417.8258627563
 30
0.0
 11
1330.5157830219
 21
-398.2320680726
 31
0.0
  0
LINE
  5
1D9
330
1F
100
AcDbEntity
  8
0
  6
Continuous
 62
     7
370
    25
100
AcDbLine
 10
931.0482493338
 20
-1090.2051091147
 30
0.0
 11
964.9893748308
 21
-1109.7989037985
 31
0.0
  0
SPLINE
  5
1DA
330
1F
100
AcDbEntity
  8
0
  6
Continuous
 62
     7
370
    25
100
AcDbSpline
210
0.0
220
0.0
230
1.0
 70
     8
 71
     3
 72
    82
 73
    78
 74
     0
 42
0.00000001
 43
0.00000001
 40
0.0
 40
0.0
 40
0.0
 40
0.0
 40
0.0049708470044735
 40
0.0184279773615886
 40
0.0318877438494085
 40
0.0453500316710911
 40
0.0588146810400874
 40
0.0722814999269834
 40
0.08575027589226
 40
0.0992207864831507
 40
0.1126928079135055
 40
0.1261661219449929
 40
0.1396405210373634
 40
0.1531158119344581
 40
0.1665918179077824
 40
0.1800683798998713
 40
0.1935453568052677
 40
0.2070226251065244
 40
0.2205000780536969
 40
0.2339776245437122
 40
0.2474551738910143
 40
0.2609326576090315
 40
0.2744100270983508
 40
0.2878872435688646
 40
0.3013642767999446
 40
0.314841103999889
 40
0.3283177087721373
 40
0.3417940801898262
 40
0.3552702119758845
 40
0.3687461017831941
 40
0.3822217505674006
 40
0.3956971620443184
 40
0.4091723422234674
 40
0.4226472990093928
 40
0.4361220418629193
 40
0.4495965815148476
 40
0.463070929725428
 40
0.4765450990834154
 40
0.4900191028392558
 40
0.50349295476759
 40
0.5169666690547148
 40
0.5304402602073092
 40
0.5439137429790989
 40
0.5573871323125655
 40
0.5708604432932133
 40
0.5843336911141233
 40
0.5978068910488953
 40
0.6112800584311778
 40
0.6247532086392559
 40
0.6382263570842028
 40
0.6516995163674607
 40
0.6651726996280611
 40
0.6786459223250756
 40
0.6921191999166589
 40
0.7055925478476153
 40
0.7190659815333416
 40
0.7325395163384787
 40
0.7460131675486634
 40
0.7594869503336523
 40
0.7729608796997055
 40
0.7864349704290418
 40
0.7999092370036909
 40
0.8133836935108071
 40
0.826858353526017
 40
0.8403332299709342
 40
0.8538083349403758
 40
0.867283679494329
 40
0.8807592734089094
 40
0.894235124880099
 40
0.9077112401731667
 40
0.9211876232101975
 40
0.9346642750875205
 40
0.9481411935144406
 40
0.9616183721646171
 40
0.9750957999316118
 40
0.9885734600812363
 40
0.9999999999999999
 40
0.9999999999999999
 40
0.9999999999999999
 40
0.9999999999999999
 10
1025.146765164265
 20
-1128.025121642902
 30
0.0
 10
1025.995383762918
 20
-1128.102729690256
 30
0.0
 10
1029.141391739132
 20
-1128.390439076287
 30
0.0
 10
1034.697583661482
 20
-1128.589468714397
 30
0.0
 10
1041.808177356382
 20
-1128.623387161902
 30
0.0
 10
1049.023434730614
 20
-1128.349498655648
 30
0.0
 10
1056.328460399712
 20
-1127.792007472608
 30
0.0
 10
1063.719873190062
 20
-1126.944880930764
 30
0.0
 10
1071.191109924858
 20
-1125.810495652811
 30
0.0
 10
1078.736374794997
 20
-1124.389279001028
 30
0.0
 10
1086.349590901976
 20
-1122.682483592049
 30
0.0
 10
1094.024690663481
 20
-1120.691441058453
 30
0.0
 10
1101.755546691725
 20
-1118.417758742097
 30
0.0
 10
1109.535998323041
 20
-1115.863263242063
 30
0.0
 10
1117.359851864266
 20
-1113.03001154314
 30
0.0
 10
1125.22088731988
 20
-1109.920283905637
 30
0.0
 10
1133.112862921436
 20
-1106.53658160615
 30
0.0
 10
1141.029519889186
 20
-1102.881623396687
 30
0.0
 10
1148.964586872136
 20
-1098.958342351526
 30
0.0
 10
1156.911781562338
 20
-1094.769884101738
 30
0.0
 10
1164.864816770169
 20
-1090.319603160784
 30
0.0
 10
1172.817406335239
 20
-1085.611058953539
 30
0.0
 10
1180.763272053996
 20
-1080.648010721883
 30
0.0
 10
1188.696146051007
 20
-1075.434415066273
 30
0.0
 10
1196.609773371452
 20
-1069.97442369983
 30
0.0
 10
1204.497916344936
 20
-1064.272380161627
 30
0.0
 10
1212.354358998315
 20
-1058.332816437208
 30
0.0
 10
1220.172911513929
 20
-1052.160449473529
 30
0.0
 10
1227.947414727467
 20
-1045.760177578044
 30
0.0
 10
1235.671744658153
 20
-1039.137076694177
 30
0.0
 10
1243.339817063056
 20
-1032.296396547593
 30
0.0
 10
1250.945592006823
 20
-1025.243556659649
 30
0.0
 10
1258.483078438032
 20
-1017.984142226042
 30
0.0
 10
1265.946338763442
 20
-1010.523899860102
 30
0.0
 10
1273.329493411645
 20
-1002.868733201336
 30
0.0
 10
1280.626725378022
 20
-995.0246983907684
 30
0.0
 10
1287.832284743218
 20
-986.9979994154721
 30
0.0
 10
1294.940493157868
 20
-978.7949833252494
 30
0.0
 10
1301.945748286627
 20
-970.4221353249831
 30
0.0
 10
1308.842528205053
 20
-961.8860737465766
 30
0.0
 10
1315.625395743225
 20
-953.1935449047136
 30
0.0
 10
1322.289002770354
 20
-944.3514178409577
 30
0.0
 10
1328.828094414991
 20
-935.3666789609027
 30
0.0
 10
1335.237513215729
 20
-926.2464265692544
 30
0.0
 10
1341.512203197572
 20
-916.9978653078828
 30
0.0
 10
1347.647213869418
 20
-907.6283005019692
 30
0.0
 10
1353.637704138298
 20
-898.1451324195012
 30
0.0
 10
1359.478946136268
 20
-888.5558504494222
 30
0.0
 10
1365.166328955982
 20
-878.8680272038893
 30
0.0
 10
1370.695361903746
 20
-869.0893132353367
 30
0.0
 10
1376.061678173384
 20
-859.2274309081307
 30
0.0
 10
1381.261038640373
 20
-849.2901677532479
 30
0.0
 10
1386.289335537088
 20
-839.285369601055
 30
0.0
 10
1391.142595555689
 20
-829.2209344868268
 30
0.0
 10
1395.816982655127
 20
-819.104806978113
 30
0.0
 10
1400.308801060576
 20
-808.9449719021384
 30
0.0
 10
1404.614498145752
 20
-798.7494480430918
 30
0.0
 10
1408.730667195502
 20
-788.526281815572
 30
0.0
 10
1412.654050046224
 20
-778.2835409205558
 30
0.0
 10
1416.38153960192
 20
-768.0293079903581
 30
0.0
 10
1419.910182223729
 20
-757.7716742293574
 30
0.0
 10
1423.237179991612
 20
-747.5187330570471
 30
0.0
 10
1426.359892834927
 20
-737.2785737615241
 30
0.0
 10
1429.275840537332
 20
-727.0592751668321
 30
0.0
 10
1431.982704590396
 20
-716.8688993360014
 30
0.0
 10
1434.478329988285
 20
-706.7154852640442
 30
0.0
 10
1436.76072661763
 20
-696.6070427683725
 30
0.0
 10
1438.82807153506
 20
-686.5515458402634
 30
0.0
 10
1440.678707313252
 20
-676.5569282444518
 30
0.0
 10
1442.311154449683
 20
-666.6310710047592
 30
0.0
 10
1443.724070693566
 20
-656.781820488867
 30
0.0
 10
1444.916407902829
 20
-647.0168926490123
 30
0.0
 10
1445.886831130719
 20
-637.3442025437048
 30
0.0
 10
1446.635890663832
 20
-627.7706070771303
 30
0.0
 10
1447.157919123157
 20
-618.3065703304233
 30
0.0
 10
1447.45537789313
 20
-609.4234871267699
 30
0.0
 10
1447.489526103044
 20
-603.7473781446289
 30
0.0
 10
1447.505193977646
 20
-601.1430669967267
 30
0.0
  0
SPLINE
  5
1DB
330
1F
100
AcDbEntity
  8
0
  6
Continuous
 62
     7
370
    25
100
AcDbSpline
210
0.0
220
0.0
230
1.0
 70
     8
 71
     3
 72
    26
 73
    22
 74
     0
 42
0.00000001
 43
0.00000001
 40
0.0
 40
0.0
 40
0.0
 40
0.0
 40
0.0284271352746403
 40
0.0824325365951008
 40
0.1364398684658759
 40
0.1904474682210117
 40
0.244454986522888
 40
0.2984620711629891
 40
0.3524683233784638
 40
0.4064732779945041
 40
0.460476399209585
 40
0.5144770778545389
 40
0.5684746308195154
 40
0.6224683034725376
 40
0.6764572759995842
 40
0.7304406746566198
 40
0.7844175889024063
 40
0.838387095241983
 40
0.8923482883116103
 40
0.9463003192435264
 40
1.0
 40
1.0
 40
1.0
 40
1.0
 10
1447.505193977646
 20
-601.1430669967267
 30
0.0
 10
1447.498953945434
 20
-599.535324979422
 30
0.0
 10
1447.480859203257
 20
-594.8732212747557
 30
0.0
 10
1447.279830278626
 20
-587.2569354382072
 30
0.0
 10
1446.828710062339
 20
-578.3456988261881
 30
0.0
 10
1446.151116072502
 20
-569.582444603233
 30
0.0
 10
1445.251395435226
 20
-560.9720363540689
 30
0.0
 10
1444.129184711554
 20
-552.5218916303263
 30
0.0
 10
1442.785606484854
 20
-544.2385683814343
 30
0.0
 10
1441.221610679548
 20
-536.1286964389898
 30
0.0
 10
1439.438419615627
 20
-528.1987234224653
 30
0.0
 10
1437.437410219933
 20
-520.4549756898251
 30
0.0
 10
1435.220143639814
 20
-512.9036385725958
 30
0.0
 10
1432.788367873189
 20
-505.5507424388456
 30
0.0
 10
1430.1439804601
 20
-498.4022045303436
 30
0.0
 10
1427.289176884765
 20
-491.463639907328
 30
0.0
 10
1424.225894477665
 20
-484.7410377707207
 30
0.0
 10
1420.957885583601
 20
-478.2382052902857
 30
0.0
 10
1417.482976468057
 20
-471.9662713720372
 30
0.0
 10
1413.827425186234
 20
-465.9172653082396
 30
0.0
 10
1411.225954253997
 20
-462.0870455476054
 30
0.0
 10
1409.928267887775
 20
-460.1764249439261
 30
0.0
  0
SPLINE
  5
1DC
330
1F
100
AcDbEntity
  8
0
  6
Continuous
 62
     7
370
    25
100
AcDbSpline
210
0.0
220
0.0
230
1.0
 70
     8
 71
     3
 72
    25
 73
    21
 74
     0
 42
0.00000001
 43
0.00000001
 40
0.0
 40
0.0
 40
0.0
 40
0.0
 40
0.0309022183710824
 40
0.0912991263674733
 40
0.1516785059018845
 40
0.2120413789655464
 40
0.2723891127053707
 40
0.3327232928580079
 40
0.3930456131403084
 40
0.4533577848736971
 40
0.5136614678850591
 40
0.5739582214641484
 40
0.634249472813274
 40
0.694536499821807
 40
0.7548204249248158
 40
0.8151022170613789
 40
0.8753826991774755
 40
0.9356625592058232
 40
0.9927683135331525
 40
0.9999999999999999
 40
0.9999999999999999
 40
0.9999999999999999
 40
0.9999999999999999
 10
1319.083824575032
 20
-507.6964676522961
 30
0.0
 10
1319.688393308889
 20
-508.5274620996245
 30
0.0
 10
1321.474562721302
 20
-510.9825954543319
 30
0.0
 10
1324.232902706006
 20
-515.3234726133547
 30
0.0
 10
1327.367206009803
 20
-520.6957451516148
 30
0.0
 10
1330.291030780531
 20
-526.3084411463244
 30
0.0
 10
1333.013968810087
 20
-532.1400273895757
 30
0.0
 10
1335.529969068778
 20
-538.1888468735275
 30
0.0
 10
1337.837416982005
 20
-544.4476577374999
 30
0.0
 10
1339.9337567532
 20
-550.9104530971799
 30
0.0
 10
1341.81693439108
 20
-557.5706351852034
 30
0.0
 10
1343.485014250054
 20
-564.4215070658026
 30
0.0
 10
1344.936288999124
 20
-571.4561432929723
 30
0.0
 10
1346.169245579643
 20
-578.6674349887522
 30
0.0
 10
1347.182615533622
 20
-586.0480653215043
 30
0.0
 10
1347.975231784515
 20
-593.5905956658017
 30
0.0
 10
1348.546573860478
 20
-601.2871845165238
 30
0.0
 10
1348.888639640437
 20
-608.9930032150745
 30
0.0
 10
1348.981705636668
 20
-614.4895006140991
 30
0.0
 10
1348.984773509263
 20
-617.3534197155086
 30
0.0
 10
1348.985118345682
 20
-617.6753312611368
 30
0.0
  0
SPLINE
  5
1DD
330
1F
100
AcDbEntity
  8
0
  6
Continuous
 62
     7
370
    25
100
AcDbSpline
210
0.0
220
0.0
230
1.0
 70
     8
 71
     3
 72
    74
 73
    70
 74
     0
 42
0.00000001
 43
0.00000001
 40
0.0
 40
0.0
 40
0.0
 40
0.0
 40
0.0079924652406465
 40
0.0231845939924164
 40
0.0383774686412372
 40
0.0535706215333851
 40
0.0687641012723014
 40
0.0839579421039839
 40
0.0991521661890501
 40
0.1143467856274606
 40
0.1295418042053005
 40
0.1447372188871056
 40
0.159933021079966
 40
0.1751291976959201
 40
0.190325732038356
 40
0.2055226045363195
 40
0.2207197933485239
 40
0.2359172748564826
 40
0.2511150240639695
 40
0.2663130149177156
 40
0.2815112205623547
 40
0.2967096135408097
 40
0.3119081659496887
 40
0.327106849558011
 40
0.3423056358963271
 40
0.3575044963224931
 40
0.3727034020694015
 40
0.3879023242796002
 40
0.4031012298675651
 40
0.4183000843916692
 40
0.4334988588727667
 40
0.4486975243413292
 40
0.4638960518705995
 40
0.4790944126230136
 40
0.4942925779142439
 40
0.5094905193002351
 40
0.5246882086934244
 40
0.5398856185152069
 40
0.5550827218930094
 40
0.5702794929114221
 40
0.5854759069287537
 40
0.6006719409718321
 40
0.6158675742242153
 40
0.631062788624921
 40
0.6462575695973458
 40
0.6614519069303239
 40
0.6766457958355937
 40
0.691839238207775
 40
0.7070322441142213
 40
0.7222248335418305
 40
0.7374170384258315
 40
0.7526089049802444
 40
0.7678004963401664
 40
0.7829918955101617
 40
0.7981832085891581
 40
0.8133745280907094
 40
0.8285659994659735
 40
0.843757807536613
 40
0.8589501728111195
 40
0.8741433541898199
 40
0.8893376506698495
 40
0.904533401490884
 40
0.9197309840404897
 40
0.934930808737101
 40
0.9501333100605731
 40
0.9653389329479181
 40
0.9805481139668188
 40
0.9957612570737118
 40
1.0
 40
1.0
 40
1.0
 40
1.0
 10
1348.985118345682
 20
-617.6753312611368
 30
0.0
 10
1348.978916357091
 20
-619.0914566690534
 30
0.0
 10
1348.960925589148
 20
-623.1993622571721
 30
0.0
 10
1348.76098483378
 20
-630.0957366632889
 30
0.0
 10
1348.312232986935
 20
-638.3962129101236
 30
0.0
 10
1347.638283275477
 20
-646.8070684847393
 30
0.0
 10
1346.743613318704
 20
-655.3173280933422
 30
0.0
 10
1345.628066693846
 20
-663.9188952584491
 30
0.0
 10
1344.293017261545
 20
-672.602802180296
 30
0.0
 10
1342.739717703727
 20
-681.3602009485323
 30
0.0
 10
1340.969740528247
 20
-690.1821103213748
 30
0.0
 10
1338.984857984829
 20
-699.0594959656362
 30
0.0
 10
1336.787071962968
 20
-707.9832613342138
 30
0.0
 10
1334.378603357232
 20
-716.9442624729545
 30
0.0
 10
1331.76189197002
 20
-725.9333163937321
 30
0.0
 10
1328.93959328386
 20
-734.9412111454367
 30
0.0
 10
1325.914575779896
 20
-743.9587153999466
 30
0.0
 10
1322.689917829415
 20
-752.9765881340721
 30
0.0
 10
1319.268904429518
 20
-761.9855882475465
 30
0.0
 10
1315.655023719227
 20
-770.9764841552345
 30
0.0
 10
1311.851963301014
 20
-779.9400633381002
 30
0.0
 10
1307.863606368149
 20
-788.8671418512829
 30
0.0
 10
1303.694027644284
 20
-797.748573783382
 30
0.0
 10
1299.347489139657
 20
-806.5752606616647
 30
0.0
 10
1294.828435728566
 20
-815.3381607973139
 30
0.0
 10
1290.141490552531
 20
-824.0282985645865
 30
0.0
 10
1285.291450253502
 20
-832.6367736074878
 30
0.0
 10
1280.283280498697
 20
-841.1547691897509
 30
0.0
 10
1275.122111112521
 20
-849.5735610439277
 30
0.0
 10
1269.813230278158
 20
-857.8845274027724
 30
0.0
 10
1264.362078600994
 20
-866.0791586057405
 30
0.0
 10
1258.774243309235
 20
-874.1490660234637
 30
0.0
 10
1253.05545317555
 20
-882.0859896782662
 30
0.0
 10
1247.211572678109
 20
-889.8818067569896
 30
0.0
 10
1241.24859602476
 20
-897.528539998417
 30
0.0
 10
1235.172641044075
 20
-905.0183659486721
 30
0.0
 10
1228.989942946631
 20
-912.3436230782339
 30
0.0
 10
1222.706847959465
 20
-919.4968197542979
 30
0.0
 10
1216.329806836209
 20
-926.4706420622416
 30
0.0
 10
1209.86536824475
 20
-933.2579614699729
 30
0.0
 10
1203.320172033601
 20
-939.8518423287901
 30
0.0
 10
1196.700942377232
 20
-946.24554920418
 30
0.0
 10
1190.014480799715
 20
-952.4325540295105
 30
0.0
 10
1183.267659074831
 20
-958.4065430749191
 30
0.0
 10
1176.467411999638
 20
-964.161423722678
 30
0.0
 10
1169.620730037146
 20
-969.6913310389112
 30
0.0
 10
1162.734651822521
 20
-974.9906341295884
 30
0.0
 10
1155.816256525962
 20
-980.0539422661641
 30
0.0
 10
1148.87265606455
 20
-984.8761107628834
 30
0.0
 10
1141.91098715484
 20
-989.4522465836006
 30
0.0
 10
1134.938403198367
 20
-993.7777136506734
 30
0.0
 10
1127.962065993756
 20
-997.8481378225061
 30
0.0
 10
1120.989137272611
 20
-1001.659411498215
 30
0.0
 10
1114.026770061436
 20
-1005.20769780291
 30
0.0
 10
1107.082105996821
 20
-1008.489431398243
 30
0.0
 10
1100.162262791707
 20
-1011.501324481973
 30
0.0
 10
1093.274324201184
 20
-1014.240370203943
 30
0.0
 10
1086.425324855751
 20
-1016.703847000456
 30
0.0
 10
1079.622245306695
 20
-1018.889316663894
 30
0.0
 10
1072.872002332952
 20
-1020.794628694305
 30
0.0
 10
1066.181446938793
 20
-1022.417903265664
 30
0.0
 10
1059.55733139689
 20
-1023.757591532685
 30
0.0
 10
1053.006394562063
 20
-1024.812243043935
 30
0.0
 10
1046.535009668195
 20
-1025.581362514501
 30
0.0
 10
1040.150470636487
 20
-1026.062196889786
 30
0.0
 10
1033.856168411736
 20
-1026.261712769467
 30
0.0
 10
1027.669584903443
 20
-1026.151864854585
 30
0.0
 10
1023.025953943161
 20
-1025.912423387874
 30
0.0
 10
1020.484201416322
 20
-1025.616564205257
 30
0.0
 10
1019.930330417637
 20
-1025.552093797844
 30
0.0
  0
SPLINE
  5
1DE
330
1F
100
AcDbEntity
  8
0
  6
Continuous
 62
     7
370
    25
100
AcDbSpline
210
0.0
220
0.0
230
1.0
 70
     8
 71
     3
 72
    91
 73
    87
 74
     0
 42
0.00000001
 43
0.00000001
 40
0.0
 40
0.0
 40
0.0
 40
0.0
 40
0.0087517057281974
 40
0.0207829286446806
 40
0.0328105730345163
 40
0.0448347780768074
 40
0.0568557704661097
 40
0.0688738379103343
 40
0.0808893047323971
 40
0.0929025109804247
 40
0.1049137956879597
 40
0.11692348433784
 40
0.1289318801895174
 40
0.1409392589099569
 40
0.1529458658638772
 40
0.1649519154277661
 40
0.1769575917562791
 40
0.18896305052051
 40
0.2009684212351161
 40
0.2129737865625945
 40
0.2249792286862976
 40
0.2369848204214799
 40
0.2489906180964306
 40
0.260996663921841
 40
0.2730029881345424
 40
0.2850096109021309
 40
0.2970165439911389
 40
0.3090237922107085
 40
0.3210313546494079
 40
0.3330392257254464
 40
0.3450473960713223
 40
0.3570558532734798
 40
0.3690645824863539
 40
0.3810735669385137
 40
0.3930827883468761
 40
0.4050922272529787
 40
0.4171018632937348
 40
0.4291116754173533
 40
0.4411216420535913
 40
0.4531317412464138
 40
0.4651419507557373
 40
0.4771522481343078
 40
0.4891626107846255
 40
0.5011730160005243
 40
0.5131834409971907
 40
0.5251938619036297
 40
0.537204249250638
 40
0.5492145801401479
 40
0.5612248316754251
 40
0.5732349809847708
 40
0.5852450052548028
 40
0.5972548817765267
 40
0.6092645880082362
 40
0.6212741016599607
 40
0.6332834008048213
 40
0.6452924640235538
 40
0.6573012705894246
 40
0.669309800702036
 40
0.6813180357798002
 40
0.6933259588224957
 40
0.7053335548569469
 40
0.7173408114807875
 40
0.7293477195210952
 40
0.7413542738265587
 40
0.7533604742134544
 40
0.765366326586766
 40
0.7773718442581473
 40
0.7893770494811178
 40
0.8013819752206601
 40
0.8133866671678733
 40
0.8253911859995443
 40
0.8373956098655583
 40
0.8494000172033992
 40
0.8614045062770926
 40
0.8734092152532292
 40
0.885414309766133
 40
0.897419985218853
 40
0.9094264684065929
 40
0.9214340180493391
 40
0.9334429237232832
 40
0.9454535025936391
 40
0.9574660932980364
 40
0.9694810463408062
 40
0.9814987104736411
 40
0.9935194147989241
 40
1.0
 40
1.0
 40
1.0
 40
1.0
 10
979.7319518589302
 20
-1004.747164372405
 30
0.0
 10
978.8383757412173
 20
-1003.609278390222
 30
0.0
 10
976.7163746971031
 20
-1000.907107646832
 30
0.0
 10
973.5877134710884
 20
-996.3558659765293
 30
0.0
 10
970.3167503632741
 20
-991.144122922741
 30
0.0
 10
967.2508071784615
 20
-985.6919816321928
 30
0.0
 10
964.3846153242757
 20
-980.0158777714984
 30
0.0
 10
961.7232421456746
 20
-974.1186501153087
 30
0.0
 10
959.2687390950839
 20
-968.0070403020269
 30
0.0
 10
957.023718882774
 20
-961.6870057187568
 30
0.0
 10
954.9903962031082
 20
-955.1649746148805
 30
0.0
 10
953.1708418290982
 20
-948.4475085872158
 30
0.0
 10
951.566910460333
 20
-941.5413903020523
 30
0.0
 10
950.1802552223957
 20
-934.4535957826472
 30
0.0
 10
949.0123186480184
 20
-927.1912961017189
 30
0.0
 10
948.0643300061442
 20
-919.7618497941771
 30
0.0
 10
947.3373012415251
 20
-912.1727965301632
 30
0.0
 10
946.8320237779288
 20
-904.4318494257003
 30
0.0
 10
946.5490658741525
 20
-896.5468919970007
 30
0.0
 10
946.4887695261305
 20
-888.5259654479512
 30
0.0
 10
946.6512486537897
 20
-880.377257643291
 30
0.0
 10
947.0363885260101
 20
-872.1090883757893
 30
0.0
 10
947.6438454370111
 20
-863.7299044008228
 30
0.0
 10
948.4730463647917
 20
-855.2482720277635
 30
0.0
 10
949.5231890428257
 20
-846.6728674596055
 30
0.0
 10
950.7932424286971
 20
-838.0124670729097
 30
0.0
 10
952.2819475386666
 20
-829.2759376645265
 30
0.0
 10
953.9878186199124
 20
-820.4722266834202
 30
0.0
 10
955.9091446353684
 20
-811.610352460266
 30
0.0
 10
958.0439910393724
 20
-802.6993944434855
 30
0.0
 10
960.3902018254497
 20
-793.7484834477533
 30
0.0
 10
962.9454018303659
 20
-784.7667919193567
 30
0.0
 10
965.7069992810503
 20
-775.763524221893
 30
0.0
 10
968.6721885730583
 20
-766.7479069453955
 30
0.0
 10
971.8379532709656
 20
-757.7291792419925
 30
0.0
 10
975.2010693224729
 20
-748.7165831913879
 30
0.0
 10
978.7581084790925
 20
-739.7193541998306
 30
0.0
 10
982.505441917151
 20
-730.7467114366481
 30
0.0
 10
986.4392440534689
 20
-721.8078483128729
 30
0.0
 10
990.5554965505538
 20
-712.9119230069529
 30
0.0
 10
994.8499925064868
 20
-704.0680490428898
 30
0.0
 10
999.3183408248829
 20
-695.285285926588
 30
0.0
 10
1003.955970760481
 20
-686.5726298464266
 30
0.0
 10
1008.758136635976
 20
-677.9390044443936
 30
0.0
 10
1013.719922583938
 20
-669.3932519085057
 30
0.0
 10
1018.836246779544
 20
-660.9441251929819
 30
0.0
 10
1024.101867460175
 20
-652.6002774051144
 30
0.0
 10
1029.511388461877
 20
-644.3702526678983
 30
0.0
 10
1035.059265650449
 20
-636.26247612237
 30
0.0
 10
1040.739811641893
 20
-628.2852468064902
 30
0.0
 10
1046.547201600018
 20
-620.4467291064169
 30
0.0
 10
1052.475479172078
 20
-612.7549443311509
 30
0.0
 10
1058.518562558592
 20
-605.2177624173052
 30
0.0
 10
1064.6702507139
 20
-597.8428937703763
 30
0.0
 10
1070.924229674364
 20
-590.6378812488183
 30
0.0
 10
1077.274079011574
 20
-583.610092297162
 30
0.0
 10
1083.713278408509
 20
-576.7667112344019
 30
0.0
 10
1090.235214357259
 20
-570.1147317039591
 30
0.0
 10
1096.833186977755
 20
-563.6609492917217
 30
0.0
 10
1103.500416957892
 20
-557.4119543190435
 30
0.0
 10
1110.230052616511
 20
-551.3741248181748
 30
0.0
 10
1117.0151770919
 20
-545.5536196984983
 30
0.0
 10
1123.848815659754
 20
-539.9563721132399
 30
0.0
 10
1130.723943185833
 20
-534.5880830380745
 30
0.0
 10
1137.633491719784
 20
-529.4542150754438
 30
0.0
 10
1144.570358237644
 20
-524.5599865014693
 30
0.0
 10
1151.52741254115
 20
-519.9103655762889
 30
0.0
 10
1158.497505321903
 20
-515.5100651435732
 30
0.0
 10
1165.473476397325
 20
-511.3635375507602
 30
0.0
 10
1172.448163122463
 20
-507.4749699290508
 30
0.0
 10
1179.414408977247
 20
-503.8482798780619
 30
0.0
 10
1186.36506848591
 20
-500.4871134694669
 30
0.0
 10
1193.293015591593
 20
-497.3948413548223
 30
0.0
 10
1200.191155521354
 20
-494.5745539955964
 30
0.0
 10
1207.052437674939
 20
-492.029057869465
 30
0.0
 10
1213.869864822447
 20
-489.7608752015468
 30
0.0
 10
1220.636500357241
 20
-487.7722417855433
 30
0.0
 10
1227.345472840744
 20
-486.0651178201928
 30
0.0
 10
1233.990000069424
 20
-484.6411494778184
 30
0.0
 10
1240.563337874695
 20
-483.5018186007989
 30
0.0
 10
1247.059006296159
 20
-482.6478942290791
 30
0.0
 10
1253.469975462529
 20
-482.0814937866535
 30
0.0
 10
1259.791728608692
 20
-481.7984048805939
 30
0.0
 10
1266.010843614724
 20
-481.8167666165052
 30
0.0
 10
1271.204294404598
 20
-482.031080180695
 30
0.0
 10
1274.278031582179
 20
-482.3517172816353
 30
0.0
 10
1275.354692516361
 20
-482.4640292395834
 30
0.0
  0
SPLINE
  5
1DF
330
1F
100
AcDbEntity
  8
0
  6
Continuous
 62
     7
370
    25
100
AcDbSpline
210
0.0
220
0.0
230
1.0
 70
     8
 71
     3
 72
    13
 73
     9
 74
     0
 42
0.00000001
 43
0.00000001
 40
0.0
 40
0.0
 40
0.0
 40
0.0
 40
0.1451954536214012
 40
0.3564335646209491
 40
0.560954770729804
 40
0.7605057691249989
 40
0.9464438471341416
 40
1.0
 40
1.0
 40
1.0
 40
1.0
 10
1346.014918363788
 20
-785.7711190739801
 30
0.0
 10
1346.230764536004
 20
-785.9283848774604
 30
0.0
 10
1346.760635263041
 20
-786.3144493824387
 30
0.0
 10
1347.41759306643
 20
-787.2371653441431
 30
0.0
 10
1347.98694180528
 20
-788.4785207091442
 30
0.0
 10
1348.338246911571
 20
-789.9079047678126
 30
0.0
 10
1348.459081569427
 20
-791.1054192701445
 30
0.0
 10
1348.466356389275
 20
-791.8005337860992
 30
0.0
 10
1348.467983198248
 20
-791.9559766088335
 30
0.0
  0
SPLINE
  5
1E0
330
1F
100
AcDbEntity
  8
0
  6
Continuous
 62
     7
370
    25
100
AcDbSpline
210
0.0
220
0.0
230
1.0
 70
     8
 71
     3
 72
    24
 73
    20
 74
     0
 42
0.00000001
 43
0.00000001
 40
0.0
 40
0.0
 40
0.0
 40
0.0
 40
0.0317280596900362
 40
0.0925115510741394
 40
0.1534387045847524
 40
0.2144889895653154
 40
0.2756453849585588
 40
0.3368712853027874
 40
0.3981230335369279
 40
0.4593474098557296
 40
0.5204890863149425
 40
0.5815017374964173
 40
0.642344716723824
 40
0.7029964544315495
 40
0.763485517208289
 40
0.8239286581870991
 40
0.8845697692573498
 40
0.9459919089783633
 40
1.0
 40
1.0
 40
1.0
 40
1.0
 10
1348.467983198248
 20
-791.9559766088335
 30
0.0
 10
1348.462194886864
 20
-792.2599560566456
 30
0.0
 10
1348.445317533838
 20
-793.1462885486573
 30
0.0
 10
1348.255310460024
 20
-794.7130233621314
 30
0.0
 10
1347.827818811145
 20
-796.6513471056853
 30
0.0
 10
1347.1917697354
 20
-798.6333897866363
 30
0.0
 10
1346.36266352702
 20
-800.6132076445298
 30
0.0
 10
1345.35626189037
 20
-802.548438141837
 30
0.0
 10
1344.194160824383
 20
-804.3966748281237
 30
0.0
 10
1342.901758732255
 20
-806.1177336216826
 30
0.0
 10
1341.508104842908
 20
-807.6744574175173
 30
0.0
 10
1340.045127167767
 20
-809.03386627494
 30
0.0
 10
1338.547011155172
 20
-810.1680715176776
 30
0.0
 10
1337.049223405644
 20
-811.0555760012924
 30
0.0
 10
1335.587872683035
 20
-811.6814234781596
 30
0.0
 10
1334.196043714485
 20
-812.041492628019
 30
0.0
 10
1332.907234944254
 20
-812.1299459239909
 30
0.0
 10
1331.779622376497
 20
-811.9914293145296
 30
0.0
 10
1331.156312187813
 20
-811.7053172494029
 30
0.0
 10
1330.864674605626
 20
-811.5714496624082
 30
0.0
  0
SPLINE
  5
1E1
330
1F
100
AcDbEntity
  8
0
  6
Continuous
 62
     7
370
    25
100
AcDbSpline
210
0.0
220
0.0
230
1.0
 70
     8
 71
     3
 72
    13
 73
     9
 74
     0
 42
0.00000001
 43
0.00000001
 40
0.0
 40
0.0
 40
0.0
 40
0.0
 40
0.1451954536213806
 40
0.3564335646209133
 40
0.5609547707297703
 40
0.7605057691249959
 40
0.9464438471341505
 40
1.0
 40
1.0
 40
1.0
 40
1.0
 10
1289.30742478669
 20
-883.9913788311234
 30
0.0
 10
1289.523270958906
 20
-884.1486446346037
 30
0.0
 10
1290.053141685943
 20
-884.5347091395819
 30
0.0
 10
1290.710099489332
 20
-885.4574251012863
 30
0.0
 10
1291.279448228182
 20
-886.6987804662874
 30
0.0
 10
1291.630753334473
 20
-888.1281645249558
 30
0.0
 10
1291.751587992329
 20
-889.3256790272878
 30
0.0
 10
1291.758862812177
 20
-890.0207935432426
 30
0.0
 10
1291.76048962115
 20
-890.1762363659767
 30
0.0
  0
SPLINE
  5
1E2
330
1F
100
AcDbEntity
  8
0
  6
Continuous
 62
     7
370
    25
100
AcDbSpline
210
0.0
220
0.0
230
1.0
 70
     8
 71
     3
 72
    24
 73
    20
 74
     0
 42
0.00000001
 43
0.00000001
 40
0.0
 40
0.0
 40
0.0
 40
0.0
 40
0.0317280596900364
 40
0.0925115510741212
 40
0.1534387045847302
 40
0.2144889895653085
 40
0.2756453849585475
 40
0.3368712853027684
 40
0.3981230335369121
 40
0.4593474098557221
 40
0.5204890863149236
 40
0.5815017374963992
 40
0.642344716723803
 40
0.7029964544315227
 40
0.7634855172082619
 40
0.8239286581870802
 40
0.8845697692573118
 40
0.9459919089783273
 40
1.0
 40
1.0
 40
1.0
 40
1.0
 10
1291.76048962115
 20
-890.1762363659767
 30
0.0
 10
1291.754701309766
 20
-890.4802158137888
 30
0.0
 10
1291.73782395674
 20
-891.3665483058004
 30
0.0
 10
1291.547816882926
 20
-892.9332831192743
 30
0.0
 10
1291.120325234047
 20
-894.8716068628282
 30
0.0
 10
1290.484276158303
 20
-896.853649543779
 30
0.0
 10
1289.655169949922
 20
-898.8334674016727
 30
0.0
 10
1288.648768313272
 20
-900.7686978989799
 30
0.0
 10
1287.486667247285
 20
-902.6169345852664
 30
0.0
 10
1286.194265155157
 20
-904.3379933788256
 30
0.0
 10
1284.80061126581
 20
-905.8947171746603
 30
0.0
 10
1283.337633590669
 20
-907.2541260320829
 30
0.0
 10
1281.839517578074
 20
-908.3883312748206
 30
0.0
 10
1280.341729828547
 20
-909.2758357584354
 30
0.0
 10
1278.880379105937
 20
-909.9016832353028
 30
0.0
 10
1277.488550137388
 20
-910.2617523851621
 30
0.0
 10
1276.199741367157
 20
-910.3502056811342
 30
0.0
 10
1275.072128799399
 20
-910.2116890716732
 30
0.0
 10
1274.448818610716
 20
-909.9255770065464
 30
0.0
 10
1274.157181028528
 20
-909.7917094195518
 30
0.0
  0
SPLINE
  5
1E3
330
1F
100
AcDbEntity
  8
0
  6
Continuous
 62
     7
370
    25
100
AcDbSpline
210
0.0
220
0.0
230
1.0
 70
     8
 71
     3
 72
    13
 73
     9
 74
     0
 42
0.00000001
 43
0.00000001
 40
0.0
 40
0.0
 40
0.0
 40
0.0
 40
0.1451954536213985
 40
0.3564335646209652
 40
0.5609547707298448
 40
0.7605057691251013
 40
0.9464438471342979
 40
1.0
 40
1.0
 40
1.0
 40
1.0
 10
1382.423370429325
 20
-682.2386654580977
 30
0.0
 10
1382.639216601541
 20
-682.395931261578
 30
0.0
 10
1383.169087328577
 20
-682.7819957665564
 30
0.0
 10
1383.826045131967
 20
-683.7047117282609
 30
0.0
 10
1384.395393870817
 20
-684.9460670932621
 30
0.0
 10
1384.746698977108
 20
-686.3754511519307
 30
0.0
 10
1384.867533634963
 20
-687.5729656542625
 30
0.0
 10
1384.874808454811
 20
-688.268080170217
 30
0.0
 10
1384.876435263784
 20
-688.4235229929507
 30
0.0
  0
SPLINE
  5
1E4
330
1F
100
AcDbEntity
  8
0
  6
Continuous
 62
     7
370
    25
100
AcDbSpline
210
0.0
220
0.0
230
1.0
 70
     8
 71
     3
 72
    24
 73
    20
 74
     0
 42
0.00000001
 43
0.00000001
 40
0.0
 40
0.0
 40
0.0
 40
0.0
 40
0.0317280596900361
 40
0.0925115510741388
 40
0.1534387045847522
 40
0.2144889895653159
 40
0.2756453849585707
 40
0.3368712853027866
 40
0.3981230335369288
 40
0.4593474098557354
 40
0.5204890863149514
 40
0.5815017374964161
 40
0.6423447167238305
 40
0.7029964544315467
 40
0.7634855172082893
 40
0.8239286581870975
 40
0.8845697692573484
 40
0.9459919089783563
 40
1.0
 40
1.0
 40
1.0
 40
1.0
 10
1384.876435263784
 20
-688.4235229929507
 30
0.0
 10
1384.8706469524
 20
-688.7275024407628
 30
0.0
 10
1384.853769599374
 20
-689.6138349327744
 30
0.0
 10
1384.663762525561
 20
-691.1805697462486
 30
0.0
 10
1384.236270876682
 20
-693.1188934898025
 30
0.0
 10
1383.600221800937
 20
-695.1009361707535
 30
0.0
 10
1382.771115592556
 20
-697.0807540286471
 30
0.0
 10
1381.764713955906
 20
-699.0159845259544
 30
0.0
 10
1380.602612889919
 20
-700.8642212122409
 30
0.0
 10
1379.310210797791
 20
-702.5852800058
 30
0.0
 10
1377.916556908444
 20
-704.1420038016346
 30
0.0
 10
1376.453579233303
 20
-705.5014126590575
 30
0.0
 10
1374.955463220708
 20
-706.635617901795
 30
0.0
 10
1373.45767547118
 20
-707.5231223854097
 30
0.0
 10
1371.996324748571
 20
-708.1489698622767
 30
0.0
 10
1370.604495780021
 20
-708.5090390121362
 30
0.0
 10
1369.315687009791
 20
-708.5974923081081
 30
0.0
 10
1368.188074442033
 20
-708.4589756986468
 30
0.0
 10
1367.564764253349
 20
-708.17286363352
 30
0.0
 10
1367.273126671162
 20
-708.0389960465255
 30
0.0
  0
SPLINE
  5
1E5
330
1F
100
AcDbEntity
  8
0
  6
Continuous
 62
     7
370
    25
100
AcDbSpline
210
0.0
220
0.0
230
1.0
 70
     8
 71
     3
 72
    13
 73
     9
 74
     0
 42
0.00000001
 43
0.00000001
 40
0.0
 40
0.0
 40
0.0
 40
0.0
 40
0.1451954536213473
 40
0.3564335646208798
 40
0.560954770729712
 40
0.7605057691249285
 40
0.946443847134073
 40
1.0
 40
1.0
 40
1.0
 40
1.0
 10
1217.851814273696
 20
-967.2849613637082
 30
0.0
 10
1218.067660445912
 20
-967.4422271671885
 30
0.0
 10
1218.597531172949
 20
-967.8282916721665
 30
0.0
 10
1219.254488976339
 20
-968.7510076338709
 30
0.0
 10
1219.823837715189
 20
-969.9923629988718
 30
0.0
 10
1220.17514282148
 20
-971.4217470575402
 30
0.0
 10
1220.295977479336
 20
-972.6192615598725
 30
0.0
 10
1220.303252299183
 20
-973.3143760758276
 30
0.0
 10
1220.304879108157
 20
-973.4698188985618
 30
0.0
  0
SPLINE
  5
1E6
330
1F
100
AcDbEntity
  8
0
  6
Continuous
 62
     7
370
    25
100
AcDbSpline
210
0.0
220
0.0
230
1.0
 70
     8
 71
     3
 72
    24
 73
    20
 74
     0
 42
0.00000001
 43
0.00000001
 40
0.0
 40
0.0
 40
0.0
 40
0.0
 40
0.0317280596900364
 40
0.092511551074121
 40
0.1534387045847299
 40
0.214488989565308
 40
0.2756453849585467
 40
0.336871285302768
 40
0.3981230335369091
 40
0.4593474098557155
 40
0.5204890863149269
 40
0.5815017374963987
 40
0.6423447167238081
 40
0.7029964544315241
 40
0.763485517208271
 40
0.8239286581870837
 40
0.8845697692573337
 40
0.9459919089783534
 40
1.0
 40
1.0
 40
1.0
 40
1.0
 10
1220.304879108157
 20
-973.4698188985619
 30
0.0
 10
1220.299090796773
 20
-973.773798346374
 30
0.0
 10
1220.282213443747
 20
-974.6601308383853
 30
0.0
 10
1220.092206369933
 20
-976.2268656518593
 30
0.0
 10
1219.664714721054
 20
-978.1651893954132
 30
0.0
 10
1219.028665645309
 20
-980.147232076364
 30
0.0
 10
1218.199559436929
 20
-982.1270499342577
 30
0.0
 10
1217.193157800279
 20
-984.0622804315649
 30
0.0
 10
1216.031056734292
 20
-985.9105171178513
 30
0.0
 10
1214.738654642164
 20
-987.6315759114104
 30
0.0
 10
1213.345000752817
 20
-989.1882997072453
 30
0.0
 10
1211.882023077676
 20
-990.547708564668
 30
0.0
 10
1210.383907065082
 20
-991.6819138074056
 30
0.0
 10
1208.886119315554
 20
-992.5694182910205
 30
0.0
 10
1207.424768592944
 20
-993.1952657678878
 30
0.0
 10
1206.032939624394
 20
-993.5553349177472
 30
0.0
 10
1204.744130854164
 20
-993.6437882137193
 30
0.0
 10
1203.616518286406
 20
-993.5052716042582
 30
0.0
 10
1202.993208097722
 20
-993.2191595391314
 30
0.0
 10
1202.701570515535
 20
-993.0852919521368
 30
0.0
  0
SPLINE
  5
1E7
330
1F
100
AcDbEntity
  8
0
  6
Continuous
 62
     7
370
    25
100
AcDbSpline
210
0.0
220
0.0
230
1.0
 70
     8
 71
     3
 72
    13
 73
     9
 74
     0
 42
0.00000001
 43
0.00000001
 40
0.0
 40
0.0
 40
0.0
 40
0.0
 40
0.145195453621386
 40
0.3564335646208791
 40
0.560954770729758
 40
0.7605057691249406
 40
0.9464438471340847
 40
1.0
 40
1.0
 40
1.0
 40
1.0
 10
1394.968868022522
 20
-583.5284958964186
 30
0.0
 10
1395.184714194738
 20
-583.6857616998988
 30
0.0
 10
1395.714584921775
 20
-584.071826204877
 30
0.0
 10
1396.371542725164
 20
-584.9945421665813
 30
0.0
 10
1396.940891464014
 20
-586.2358975315822
 30
0.0
 10
1397.292196570305
 20
-587.6652815902506
 30
0.0
 10
1397.413031228161
 20
-588.8627960925827
 30
0.0
 10
1397.420306048009
 20
-589.5579106085377
 30
0.0
 10
1397.421932856982
 20
-589.713353431272
 30
0.0
  0
SPLINE
  5
1E8
330
1F
100
AcDbEntity
  8
0
  6
Continuous
 62
     7
370
    25
100
AcDbSpline
210
0.0
220
0.0
230
1.0
 70
     8
 71
     3
 72
    24
 73
    20
 74
     0
 42
0.00000001
 43
0.00000001
 40
0.0
 40
0.0
 40
0.0
 40
0.0
 40
0.0317280596900362
 40
0.092511551074139
 40
0.1534387045847525
 40
0.2144889895653161
 40
0.2756453849585593
 40
0.3368712853027893
 40
0.3981230335369214
 40
0.4593474098557225
 40
0.5204890863149343
 40
0.5815017374964017
 40
0.6423447167238102
 40
0.7029964544315327
 40
0.7634855172082734
 40
0.8239286581870847
 40
0.8845697692573273
 40
0.945991908978341
 40
1.0
 40
1.0
 40
1.0
 40
1.0
 10
1397.421932856982
 20
-589.713353431272
 30
0.0
 10
1397.416144545598
 20
-590.0173328790842
 30
0.0
 10
1397.399267192571
 20
-590.9036653710959
 30
0.0
 10
1397.209260118758
 20
-592.4704001845699
 30
0.0
 10
1396.78176846988
 20
-594.408723928124
 30
0.0
 10
1396.145719394134
 20
-596.3907666090748
 30
0.0
 10
1395.316613185754
 20
-598.3705844669684
 30
0.0
 10
1394.310211549104
 20
-600.3058149642756
 30
0.0
 10
1393.148110483117
 20
-602.1540516505621
 30
0.0
 10
1391.855708390989
 20
-603.8751104441211
 30
0.0
 10
1390.462054501642
 20
-605.4318342399557
 30
0.0
 10
1388.999076826501
 20
-606.7912430973785
 30
0.0
 10
1387.500960813906
 20
-607.9254483401161
 30
0.0
 10
1386.003173064379
 20
-608.8129528237308
 30
0.0
 10
1384.541822341769
 20
-609.4388003005981
 30
0.0
 10
1383.149993373219
 20
-609.7988694504575
 30
0.0
 10
1381.861184602989
 20
-609.8873227464294
 30
0.0
 10
1380.733572035231
 20
-609.7488061369683
 30
0.0
 10
1380.110261846547
 20
-609.4626940718416
 30
0.0
 10
1379.81862426436
 20
-609.328826484847
 30
0.0
  0
SPLINE
  5
1E9
330
1F
100
AcDbEntity
  8
0
  6
Continuous
 62
     7
370
    25
100
AcDbSpline
210
0.0
220
0.0
230
1.0
 70
     8
 71
     3
 72
    13
 73
     9
 74
     0
 42
0.00000001
 43
0.00000001
 40
0.0
 40
0.0
 40
0.0
 40
0.0
 40
0.1451954536213605
 40
0.3564335646208801
 40
0.5609547707297435
 40
0.7605057691249402
 40
0.9464438471340773
 40
1.0
 40
1.0
 40
1.0
 40
1.0
 10
1138.642659842333
 20
-1027.498510472931
 30
0.0
 10
1138.858506014549
 20
-1027.655776276412
 30
0.0
 10
1139.388376741586
 20
-1028.04184078139
 30
0.0
 10
1140.045334544975
 20
-1028.964556743094
 30
0.0
 10
1140.614683283826
 20
-1030.205912108095
 30
0.0
 10
1140.965988390117
 20
-1031.635296166764
 30
0.0
 10
1141.086823047973
 20
-1032.832810669095
 30
0.0
 10
1141.09409786782
 20
-1033.527925185051
 30
0.0
 10
1141.095724676793
 20
-1033.683368007785
 30
0.0
  0
SPLINE
  5
1EA
330
1F
100
AcDbEntity
  8
0
  6
Continuous
 62
     7
370
    25
100
AcDbSpline
210
0.0
220
0.0
230
1.0
 70
     8
 71
     3
 72
    24
 73
    20
 74
     0
 42
0.00000001
 43
0.00000001
 40
0.0
 40
0.0
 40
0.0
 40
0.0
 40
0.0317280596900369
 40
0.0925115510741145
 40
0.1534387045847257
 40
0.2144889895652994
 40
0.2756453849585374
 40
0.3368712853027623
 40
0.3981230335369056
 40
0.4593474098557077
 40
0.5204890863149284
 40
0.5815017374963991
 40
0.6423447167237969
 40
0.7029964544315329
 40
0.7634855172082674
 40
0.8239286581870899
 40
0.8845697692573279
 40
0.9459919089783365
 40
1.0
 40
1.0
 40
1.0
 40
1.0
 10
1141.095724676793
 20
-1033.683368007785
 30
0.0
 10
1141.08993636541
 20
-1033.987347455597
 30
0.0
 10
1141.073059012383
 20
-1034.873679947608
 30
0.0
 10
1140.88305193857
 20
-1036.440414761082
 30
0.0
 10
1140.455560289691
 20
-1038.378738504636
 30
0.0
 10
1139.819511213946
 20
-1040.360781185587
 30
0.0
 10
1138.990405005566
 20
-1042.34059904348
 30
0.0
 10
1137.984003368916
 20
-1044.275829540788
 30
0.0
 10
1136.821902302929
 20
-1046.124066227074
 30
0.0
 10
1135.529500210801
 20
-1047.845125020633
 30
0.0
 10
1134.135846321454
 20
-1049.401848816468
 30
0.0
 10
1132.672868646313
 20
-1050.761257673891
 30
0.0
 10
1131.174752633719
 20
-1051.895462916629
 30
0.0
 10
1129.676964884191
 20
-1052.782967400243
 30
0.0
 10
1128.215614161581
 20
-1053.408814877111
 30
0.0
 10
1126.823785193031
 20
-1053.76888402697
 30
0.0
 10
1125.534976422801
 20
-1053.857337322942
 30
0.0
 10
1124.407363855043
 20
-1053.718820713481
 30
0.0
 10
1123.784053666359
 20
-1053.432708648354
 30
0.0
 10
1123.492416084172
 20
-1053.29884106136
 30
0.0
  0
SPLINE
  5
1EB
330
1F
100
AcDbEntity
  8
0
  6
Continuous
 62
     7
370
    25
100
AcDbSpline
210
0.0
220
0.0
230
1.0
 70
     8
 71
     3
 72
    13
 73
     9
 74
     0
 42
0.00000001
 43
0.00000001
 40
0.0
 40
0.0
 40
0.0
 40
0.0
 40
0.1451954536213879
 40
0.3564335646208912
 40
0.5609547707297436
 40
0.7605057691249727
 40
0.9464438471341345
 40
1.0
 40
1.0
 40
1.0
 40
1.0
 10
1382.423370429338
 20
-499.3030495398335
 30
0.0
 10
1382.639216601554
 20
-499.4603153433138
 30
0.0
 10
1383.169087328591
 20
-499.846379848292
 30
0.0
 10
1383.82604513198
 20
-500.7690958099961
 30
0.0
 10
1384.39539387083
 20
-502.0104511749972
 30
0.0
 10
1384.746698977121
 20
-503.4398352336657
 30
0.0
 10
1384.867533634977
 20
-504.6373497359977
 30
0.0
 10
1384.874808454824
 20
-505.3324642519528
 30
0.0
 10
1384.876435263798
 20
-505.4879070746868
 30
0.0
  0
SPLINE
  5
1EC
330
1F
100
AcDbEntity
  8
0
  6
Continuous
 62
     7
370
    25
100
AcDbSpline
210
0.0
220
0.0
230
1.0
 70
     8
 71
     3
 72
    24
 73
    20
 74
     0
 42
0.00000001
 43
0.00000001
 40
0.0
 40
0.0
 40
0.0
 40
0.0
 40
0.031728059690036
 40
0.0925115510741386
 40
0.1534387045847518
 40
0.2144889895653153
 40
0.2756453849585699
 40
0.3368712853027857
 40
0.3981230335369277
 40
0.459347409855734
 40
0.5204890863149529
 40
0.5815017374964208
 40
0.6423447167238286
 40
0.7029964544315492
 40
0.7634855172082917
 40
0.8239286581871054
 40
0.8845697692573492
 40
0.9459919089783632
 40
1.0
 40
1.0
 40
1.0
 40
1.0
 10
1384.876435263798
 20
-505.4879070746869
 30
0.0
 10
1384.870646952414
 20
-505.7918865224991
 30
0.0
 10
1384.853769599388
 20
-506.6782190145107
 30
0.0
 10
1384.663762525574
 20
-508.2449538279846
 30
0.0
 10
1384.236270876695
 20
-510.1832775715389
 30
0.0
 10
1383.60022180095
 20
-512.1653202524899
 30
0.0
 10
1382.771115592569
 20
-514.1451381103833
 30
0.0
 10
1381.76471395592
 20
-516.0803686076906
 30
0.0
 10
1380.602612889933
 20
-517.9286052939772
 30
0.0
 10
1379.310210797805
 20
-519.6496640875363
 30
0.0
 10
1377.916556908458
 20
-521.2063878833709
 30
0.0
 10
1376.453579233316
 20
-522.5657967407939
 30
0.0
 10
1374.955463220722
 20
-523.7000019835311
 30
0.0
 10
1373.457675471194
 20
-524.587506467146
 30
0.0
 10
1371.996324748584
 20
-525.2133539440132
 30
0.0
 10
1370.604495780035
 20
-525.5734230938724
 30
0.0
 10
1369.315687009804
 20
-525.6618763898443
 30
0.0
 10
1368.188074442046
 20
-525.5233597803831
 30
0.0
 10
1367.564764253363
 20
-525.2372477152563
 30
0.0
 10
1367.273126671176
 20
-525.1033801282617
 30
0.0
  0
SPLINE
  5
1ED
330
1F
100
AcDbEntity
  8
0
  6
Continuous
 62
     7
370
    25
100
AcDbSpline
210
0.0
220
0.0
230
1.0
 70
     8
 71
     3
 72
    13
 73
     9
 74
     0
 42
0.00000001
 43
0.00000001
 40
0.0
 40
0.0
 40
0.0
 40
0.0
 40
0.1451954536213521
 40
0.3564335646208631
 40
0.5609547707297187
 40
0.7605057691249173
 40
0.9464438471340515
 40
1.0
 40
1.0
 40
1.0
 40
1.0
 10
1059.433505410972
 20
-1058.737904439516
 30
0.0
 10
1059.649351583188
 20
-1058.895170242996
 30
0.0
 10
1060.179222310225
 20
-1059.281234747974
 30
0.0
 10
1060.836180113614
 20
-1060.203950709678
 30
0.0
 10
1061.405528852465
 20
-1061.445306074679
 30
0.0
 10
1061.756833958756
 20
-1062.874690133348
 30
0.0
 10
1061.877668616612
 20
-1064.07220463568
 30
0.0
 10
1061.884943436459
 20
-1064.767319151635
 30
0.0
 10
1061.886570245432
 20
-1064.922761974369
 30
0.0
  0
SPLINE
  5
1EE
330
1F
100
AcDbEntity
  8
0
  6
Continuous
 62
     7
370
    25
100
AcDbSpline
210
0.0
220
0.0
230
1.0
 70
     8
 71
     3
 72
    24
 73
    20
 74
     0
 42
0.00000001
 43
0.00000001
 40
0.0
 40
0.0
 40
0.0
 40
0.0
 40
0.0317280596900365
 40
0.0925115510741215
 40
0.1534387045847291
 40
0.2144889895653025
 40
0.27564538495854
 40
0.3368712853027714
 40
0.3981230335369089
 40
0.4593474098557236
 40
0.5204890863149437
 40
0.5815017374964119
 40
0.6423447167238303
 40
0.7029964544315336
 40
0.7634855172082887
 40
0.8239286581871099
 40
0.8845697692573458
 40
0.9459919089783639
 40
0.9999999999999999
 40
0.9999999999999999
 40
0.9999999999999999
 40
0.9999999999999999
 10
1061.886570245432
 20
-1064.922761974369
 30
0.0
 10
1061.880781934049
 20
-1065.226741422181
 30
0.0
 10
1061.863904581022
 20
-1066.113073914193
 30
0.0
 10
1061.673897507209
 20
-1067.679808727667
 30
0.0
 10
1061.24640585833
 20
-1069.618132471221
 30
0.0
 10
1060.610356782585
 20
-1071.600175152171
 30
0.0
 10
1059.781250574204
 20
-1073.579993010065
 30
0.0
 10
1058.774848937555
 20
-1075.515223507372
 30
0.0
 10
1057.612747871568
 20
-1077.363460193659
 30
0.0
 10
1056.32034577944
 20
-1079.084518987218
 30
0.0
 10
1054.926691890093
 20
-1080.641242783053
 30
0.0
 10
1053.463714214952
 20
-1082.000651640476
 30
0.0
 10
1051.965598202357
 20
-1083.134856883213
 30
0.0
 10
1050.467810452829
 20
-1084.022361366828
 30
0.0
 10
1049.006459730219
 20
-1084.648208843695
 30
0.0
 10
1047.61463076167
 20
-1085.008277993555
 30
0.0
 10
1046.325821991439
 20
-1085.096731289527
 30
0.0
 10
1045.198209423681
 20
-1084.958214680066
 30
0.0
 10
1044.574899234998
 20
-1084.672102614939
 30
0.0
 10
1044.283261652811
 20
-1084.538235027944
 30
0.0
  0
SPLINE
  5
1EF
330
1F
100
AcDbEntity
  8
0
  6
Continuous
 62
     7
370
    25
100
AcDbSpline
210
0.0
220
0.0
230
1.0
 70
     8
 71
     3
 72
    13
 73
     9
 74
     0
 42
0.00000001
 43
0.00000001
 40
0.0
 40
0.0
 40
0.0
 40
0.0
 40
0.1451954536214012
 40
0.3564335646209491
 40
0.560954770729804
 40
0.7605057691249989
 40
0.9464438471341416
 40
1.0
 40
1.0
 40
1.0
 40
1.0
 10
1346.014918363814
 20
-437.8068999109158
 30
0.0
 10
1346.23076453603
 20
-437.9641657143961
 30
0.0
 10
1346.760635263067
 20
-438.3502302193745
 30
0.0
 10
1347.417593066456
 20
-439.2729461810787
 30
0.0
 10
1347.986941805306
 20
-440.5143015460798
 30
0.0
 10
1348.338246911597
 20
-441.9436856047485
 30
0.0
 10
1348.459081569453
 20
-443.1412001070798
 30
0.0
 10
1348.466356389301
 20
-443.836314623035
 30
0.0
 10
1348.467983198274
 20
-443.9917574457691
 30
0.0
  0
SPLINE
  5
1F0
330
1F
100
AcDbEntity
  8
0
  6
Continuous
 62
     7
370
    25
100
AcDbSpline
210
0.0
220
0.0
230
1.0
 70
     8
 71
     3
 72
    24
 73
    20
 74
     0
 42
0.00000001
 43
0.00000001
 40
0.0
 40
0.0
 40
0.0
 40
0.0
 40
0.0317280596900362
 40
0.0925115510741394
 40
0.1534387045847524
 40
0.2144889895653154
 40
0.2756453849585588
 40
0.3368712853027874
 40
0.3981230335369279
 40
0.4593474098557296
 40
0.5204890863149425
 40
0.5815017374964173
 40
0.642344716723824
 40
0.7029964544315495
 40
0.763485517208289
 40
0.8239286581870991
 40
0.8845697692573498
 40
0.9459919089783633
 40
1.0
 40
1.0
 40
1.0
 40
1.0
 10
1348.467983198274
 20
-443.9917574457691
 30
0.0
 10
1348.46219488689
 20
-444.2957368935813
 30
0.0
 10
1348.445317533864
 20
-445.1820693855929
 30
0.0
 10
1348.25531046005
 20
-446.748804199067
 30
0.0
 10
1347.827818811171
 20
-448.6871279426209
 30
0.0
 10
1347.191769735426
 20
-450.669170623572
 30
0.0
 10
1346.362663527046
 20
-452.6489884814654
 30
0.0
 10
1345.356261890396
 20
-454.5842189787726
 30
0.0
 10
1344.194160824409
 20
-456.4324556650593
 30
0.0
 10
1342.901758732281
 20
-458.1535144586183
 30
0.0
 10
1341.508104842934
 20
-459.7102382544529
 30
0.0
 10
1340.045127167793
 20
-461.0696471118758
 30
0.0
 10
1338.547011155198
 20
-462.2038523546134
 30
0.0
 10
1337.04922340567
 20
-463.091356838228
 30
0.0
 10
1335.58787268306
 20
-463.7172043150953
 30
0.0
 10
1334.196043714511
 20
-464.0772734649545
 30
0.0
 10
1332.907234944281
 20
-464.1657267609267
 30
0.0
 10
1331.779622376522
 20
-464.0272101514654
 30
0.0
 10
1331.156312187839
 20
-463.7410980863387
 30
0.0
 10
1330.864674605652
 20
-463.607230499344
 30
0.0
  0
SPLINE
  5
1F1
330
1F
100
AcDbEntity
  8
0
  6
Continuous
 62
     7
370
    25
100
AcDbSpline
210
0.0
220
0.0
230
1.0
 70
     8
 71
     3
 72
    13
 73
     9
 74
     0
 42
0.00000001
 43
0.00000001
 40
0.0
 40
0.0
 40
0.0
 40
0.0
 40
0.1451954536213792
 40
0.3564335646209122
 40
0.5609547707297696
 40
0.7605057691249955
 40
0.9464438471341504
 40
1.0
 40
1.0
 40
1.0
 40
1.0
 10
987.9778948979856
 20
-1057.945213724356
 30
0.0
 10
988.1937410702018
 20
-1058.102479527837
 30
0.0
 10
988.7236117972386
 20
-1058.488544032815
 30
0.0
 10
989.3805696006277
 20
-1059.411259994519
 30
0.0
 10
989.9499183394781
 20
-1060.65261535952
 30
0.0
 10
990.3012234457692
 20
-1062.081999418189
 30
0.0
 10
990.422058103625
 20
-1063.27951392052
 30
0.0
 10
990.4293329234724
 20
-1063.974628436476
 30
0.0
 10
990.4309597324457
 20
-1064.13007125921
 30
0.0
  0
SPLINE
  5
1F2
330
1F
100
AcDbEntity
  8
0
  6
Continuous
 62
     7
370
    25
100
AcDbSpline
210
0.0
220
0.0
230
1.0
 70
     8
 71
     3
 72
    24
 73
    20
 74
     0
 42
0.00000001
 43
0.00000001
 40
0.0
 40
0.0
 40
0.0
 40
0.0
 40
0.0317280596900364
 40
0.0925115510741212
 40
0.1534387045847302
 40
0.2144889895653085
 40
0.2756453849585475
 40
0.3368712853027684
 40
0.3981230335369121
 40
0.4593474098557221
 40
0.5204890863149236
 40
0.5815017374963992
 40
0.642344716723803
 40
0.7029964544315227
 40
0.7634855172082619
 40
0.8239286581870802
 40
0.8845697692573118
 40
0.9459919089783273
 40
1.0
 40
1.0
 40
1.0
 40
1.0
 10
990.4309597324457
 20
-1064.13007125921
 30
0.0
 10
990.4251714210617
 20
-1064.434050707022
 30
0.0
 10
990.4082940680355
 20
-1065.320383199033
 30
0.0
 10
990.2182869942221
 20
-1066.887118012507
 30
0.0
 10
989.7907953453436
 20
-1068.825441756061
 30
0.0
 10
989.1547462695984
 20
-1070.807484437012
 30
0.0
 10
988.3256400612177
 20
-1072.787302294905
 30
0.0
 10
987.3192384245682
 20
-1074.722532792213
 30
0.0
 10
986.1571373585812
 20
-1076.570769478499
 30
0.0
 10
984.8647352664533
 20
-1078.291828272058
 30
0.0
 10
983.4710813771062
 20
-1079.848552067893
 30
0.0
 10
982.0081037019652
 20
-1081.207960925316
 30
0.0
 10
980.5099876893705
 20
-1082.342166168053
 30
0.0
 10
979.0121999398428
 20
-1083.229670651668
 30
0.0
 10
977.550849217233
 20
-1083.855518128536
 30
0.0
 10
976.1590202486835
 20
-1084.215587278395
 30
0.0
 10
974.8702114784531
 20
-1084.304040574367
 30
0.0
 10
973.7425989106949
 20
-1084.165523964906
 30
0.0
 10
973.1192887220113
 20
-1083.879411899779
 30
0.0
 10
972.8276511398237
 20
-1083.745544312785
 30
0.0
  0
SPLINE
  5
1F3
330
1F
100
AcDbEntity
  8
0
  6
Continuous
 62
     7
370
    25
100
AcDbSpline
210
0.0
220
0.0
230
1.0
 70
     8
 71
     3
 72
    13
 73
     9
 74
     0
 42
0.00000001
 43
0.00000001
 40
0.0
 40
0.0
 40
0.0
 40
0.0
 40
0.1451954536213699
 40
0.3564335646208628
 40
0.5609547707297095
 40
0.7605057691249277
 40
0.946443847134074
 40
1.0
 40
1.0
 40
1.0
 40
1.0
 10
1289.307424786725
 20
-405.0597186042124
 30
0.0
 10
1289.523270958941
 20
-405.2169844076926
 30
0.0
 10
1290.053141685978
 20
-405.6030489126707
 30
0.0
 10
1290.710099489367
 20
-406.525764874375
 30
0.0
 10
1291.279448228218
 20
-407.7671202393759
 30
0.0
 10
1291.630753334509
 20
-409.1965042980444
 30
0.0
 10
1291.751587992365
 20
-410.3940188003766
 30
0.0
 10
1291.758862812212
 20
-411.0891333163317
 30
0.0
 10
1291.760489621185
 20
-411.244576139066
 30
0.0
  0
SPLINE
  5
1F4
330
1F
100
AcDbEntity
  8
0
  6
Continuous
 62
     7
370
    25
100
AcDbSpline
210
0.0
220
0.0
230
1.0
 70
     8
 71
     3
 72
    24
 73
    20
 74
     0
 42
0.00000001
 43
0.00000001
 40
0.0
 40
0.0
 40
0.0
 40
0.0
 40
0.0317280596900365
 40
0.0925115510741214
 40
0.1534387045847304
 40
0.2144889895653088
 40
0.2756453849585478
 40
0.3368712853027688
 40
0.3981230335369126
 40
0.4593474098557228
 40
0.5204890863149243
 40
0.5815017374964
 40
0.6423447167238037
 40
0.7029964544315336
 40
0.763485517208273
 40
0.8239286581870892
 40
0.8845697692573208
 40
0.9459919089783351
 40
1.0
 40
1.0
 40
1.0
 40
1.0
 10
1291.760489621185
 20
-411.244576139066
 30
0.0
 10
1291.754701309802
 20
-411.5485555868782
 30
0.0
 10
1291.737823956775
 20
-412.4348880788896
 30
0.0
 10
1291.547816882962
 20
-414.0016228923635
 30
0.0
 10
1291.120325234083
 20
-415.9399466359173
 30
0.0
 10
1290.484276158338
 20
-417.9219893168683
 30
0.0
 10
1289.655169949957
 20
-419.9018071747618
 30
0.0
 10
1288.648768313308
 20
-421.837037672069
 30
0.0
 10
1287.486667247321
 20
-423.6852743583558
 30
0.0
 10
1286.194265155193
 20
-425.4063331519148
 30
0.0
 10
1284.800611265846
 20
-426.9630569477495
 30
0.0
 10
1283.337633590705
 20
-428.3224658051723
 30
0.0
 10
1281.83951757811
 20
-429.4566710479098
 30
0.0
 10
1280.341729828582
 20
-430.3441755315248
 30
0.0
 10
1278.880379105973
 20
-430.9700230083921
 30
0.0
 10
1277.488550137423
 20
-431.3300921582514
 30
0.0
 10
1276.199741367193
 20
-431.4185454542235
 30
0.0
 10
1275.072128799435
 20
-431.2800288447623
 30
0.0
 10
1274.448818610751
 20
-430.9939167796356
 30
0.0
 10
1274.157181028563
 20
-430.860049192641
 30
0.0
  0
SPLINE
  5
1F5
330
1F
100
AcDbEntity
  8
0
  6
Continuous
 62
     7
370
    25
100
AcDbSpline
210
0.0
220
0.0
230
1.0
 70
     8
 71
     3
 72
    13
 73
     9
 74
     0
 42
0.00000001
 43
0.00000001
 40
0.0
 40
0.0
 40
0.0
 40
0.0
 40
0.1451954536214012
 40
0.3564335646209491
 40
0.560954770729804
 40
0.7605057691249989
 40
0.9464438471341416
 40
1.0
 40
1.0
 40
1.0
 40
1.0
 10
931.2704013208975
 20
-1025.198032417653
 30
0.0
 10
931.4862474931136
 20
-1025.355298221134
 30
0.0
 10
932.0161182201506
 20
-1025.741362726112
 30
0.0
 10
932.6730760235396
 20
-1026.664078687816
 30
0.0
 10
933.2424247623899
 20
-1027.905434052817
 30
0.0
 10
933.593729868681
 20
-1029.334818111486
 30
0.0
 10
933.7145645265366
 20
-1030.532332613818
 30
0.0
 10
933.7218393463842
 20
-1031.227447129772
 30
0.0
 10
933.7234661553574
 20
-1031.382889952507
 30
0.0
  0
SPLINE
  5
1F6
330
1F
100
AcDbEntity
  8
0
  6
Continuous
 62
     7
370
    25
100
AcDbSpline
210
0.0
220
0.0
230
1.0
 70
     8
 71
     3
 72
    24
 73
    20
 74
     0
 42
0.00000001
 43
0.00000001
 40
0.0
 40
0.0
 40
0.0
 40
0.0
 40
0.0317280596900362
 40
0.0925115510741394
 40
0.1534387045847524
 40
0.2144889895653154
 40
0.2756453849585588
 40
0.3368712853027874
 40
0.3981230335369279
 40
0.4593474098557296
 40
0.5204890863149425
 40
0.5815017374964173
 40
0.642344716723824
 40
0.7029964544315495
 40
0.763485517208289
 40
0.8239286581870991
 40
0.8845697692573498
 40
0.9459919089783633
 40
1.0
 40
1.0
 40
1.0
 40
1.0
 10
933.7234661553574
 20
-1031.382889952507
 30
0.0
 10
933.7176778439735
 20
-1031.686869400319
 30
0.0
 10
933.7008004909471
 20
-1032.57320189233
 30
0.0
 10
933.5107934171339
 20
-1034.139936705804
 30
0.0
 10
933.083301768255
 20
-1036.078260449359
 30
0.0
 10
932.44725269251
 20
-1038.060303130309
 30
0.0
 10
931.6181464841292
 20
-1040.040120988203
 30
0.0
 10
930.6117448474796
 20
-1041.97535148551
 30
0.0
 10
929.4496437814925
 20
-1043.823588171797
 30
0.0
 10
928.1572416893648
 20
-1045.544646965356
 30
0.0
 10
926.7635878000175
 20
-1047.101370761191
 30
0.0
 10
925.3006101248764
 20
-1048.460779618613
 30
0.0
 10
923.8024941122816
 20
-1049.594984861351
 30
0.0
 10
922.3047063627539
 20
-1050.482489344966
 30
0.0
 10
920.8433556401441
 20
-1051.108336821833
 30
0.0
 10
919.4515266715943
 20
-1051.468405971692
 30
0.0
 10
918.1627179013642
 20
-1051.556859267664
 30
0.0
 10
917.0351053336061
 20
-1051.418342658203
 30
0.0
 10
916.4117951449227
 20
-1051.132230593076
 30
0.0
 10
916.1201575627354
 20
-1050.998363006081
 30
0.0
  0
SPLINE
  5
1F7
330
1F
100
AcDbEntity
  8
0
  6
Continuous
 62
     7
370
    25
100
AcDbSpline
210
0.0
220
0.0
230
1.0
 70
     8
 71
     3
 72
    13
 73
     9
 74
     0
 42
0.00000001
 43
0.00000001
 40
0.0
 40
0.0
 40
0.0
 40
0.0
 40
0.1451954536213853
 40
0.3564335646209204
 40
0.5609547707297763
 40
0.7605057691250119
 40
0.9464438471341775
 40
0.9999999999999999
 40
0.9999999999999999
 40
0.9999999999999999
 40
0.9999999999999999
 10
1217.851814273739
 20
-404.2670278890531
 30
0.0
 10
1218.067660445955
 20
-404.4242936925334
 30
0.0
 10
1218.597531172992
 20
-404.8103581975117
 30
0.0
 10
1219.254488976381
 20
-405.7330741592161
 30
0.0
 10
1219.823837715231
 20
-406.974429524217
 30
0.0
 10
1220.175142821522
 20
-408.4038135828854
 30
0.0
 10
1220.295977479378
 20
-409.6013280852174
 30
0.0
 10
1220.303252299226
 20
-410.2964426011723
 30
0.0
 10
1220.304879108199
 20
-410.4518854239063
 30
0.0
  0
SPLINE
  5
1F8
330
1F
100
AcDbEntity
  8
0
  6
Continuous
 62
     7
370
    25
100
AcDbSpline
210
0.0
220
0.0
230
1.0
 70
     8
 71
     3
 72
    24
 73
    20
 74
     0
 42
0.00000001
 43
0.00000001
 40
0.0
 40
0.0
 40
0.0
 40
0.0
 40
0.0317280596900363
 40
0.0925115510741208
 40
0.1534387045847296
 40
0.2144889895653076
 40
0.2756453849585461
 40
0.3368712853027673
 40
0.3981230335369086
 40
0.4593474098557148
 40
0.5204890863149257
 40
0.5815017374963973
 40
0.6423447167238071
 40
0.702996454431523
 40
0.7634855172082697
 40
0.8239286581870824
 40
0.8845697692573325
 40
0.9459919089783407
 40
1.0
 40
1.0
 40
1.0
 40
1.0
 10
1220.304879108199
 20
-410.4518854239063
 30
0.0
 10
1220.299090796815
 20
-410.7558648717185
 30
0.0
 10
1220.282213443789
 20
-411.6421973637298
 30
0.0
 10
1220.092206369975
 20
-413.2089321772037
 30
0.0
 10
1219.664714721096
 20
-415.1472559207576
 30
0.0
 10
1219.028665645351
 20
-417.1292986017086
 30
0.0
 10
1218.199559436971
 20
-419.1091164596021
 30
0.0
 10
1217.193157800321
 20
-421.0443469569093
 30
0.0
 10
1216.031056734334
 20
-422.8925836431957
 30
0.0
 10
1214.738654642206
 20
-424.6136424367551
 30
0.0
 10
1213.345000752859
 20
-426.1703662325897
 30
0.0
 10
1211.882023077718
 20
-427.5297750900124
 30
0.0
 10
1210.383907065123
 20
-428.6639803327502
 30
0.0
 10
1208.886119315596
 20
-429.5514848163651
 30
0.0
 10
1207.424768592986
 20
-430.1773322932323
 30
0.0
 10
1206.032939624436
 20
-430.5374014430918
 30
0.0
 10
1204.744130854206
 20
-430.6258547390637
 30
0.0
 10
1203.616518286447
 20
-430.4873381296025
 30
0.0
 10
1202.993208097764
 20
-430.2012260644758
 30
0.0
 10
1202.701570515577
 20
-430.0673584774811
 30
0.0
  0
SPLINE
  5
1F9
330
1F
100
AcDbEntity
  8
0
  6
Continuous
 62
     7
370
    25
100
AcDbSpline
210
0.0
220
0.0
230
1.0
 70
     8
 71
     3
 72
    13
 73
     9
 74
     0
 42
0.00000001
 43
0.00000001
 40
0.0
 40
0.0
 40
0.0
 40
0.0
 40
0.1451954536214013
 40
0.3564335646209673
 40
0.5609547707298462
 40
0.7605057691251023
 40
0.9464438471342981
 40
1.0
 40
1.0
 40
1.0
 40
1.0
 10
894.861949255374
 20
-963.7018827887358
 30
0.0
 10
895.0777954275902
 20
-963.8591485922161
 30
0.0
 10
895.607666154627
 20
-964.2452130971946
 30
0.0
 10
896.264623958016
 20
-965.1679290588988
 30
0.0
 10
896.8339726968661
 20
-966.4092844239003
 30
0.0
 10
897.1852778031573
 20
-967.8386684825688
 30
0.0
 10
897.3061124610127
 20
-969.0361829849006
 30
0.0
 10
897.3133872808603
 20
-969.731297500855
 30
0.0
 10
897.3150140898335
 20
-969.8867403235887
 30
0.0
  0
SPLINE
  5
1FA
330
1F
100
AcDbEntity
  8
0
  6
Continuous
 62
     7
370
    25
100
AcDbSpline
210
0.0
220
0.0
230
1.0
 70
     8
 71
     3
 72
    24
 73
    20
 74
     0
 42
0.00000001
 43
0.00000001
 40
0.0
 40
0.0
 40
0.0
 40
0.0
 40
0.0317280596900361
 40
0.0925115510741388
 40
0.1534387045847522
 40
0.2144889895653159
 40
0.2756453849585707
 40
0.3368712853027866
 40
0.3981230335369288
 40
0.4593474098557354
 40
0.5204890863149514
 40
0.5815017374964161
 40
0.6423447167238305
 40
0.7029964544315467
 40
0.7634855172082893
 40
0.8239286581870975
 40
0.8845697692573484
 40
0.9459919089783563
 40
1.0
 40
1.0
 40
1.0
 40
1.0
 10
897.3150140898335
 20
-969.8867403235887
 30
0.0
 10
897.3092257784497
 20
-970.1907197714008
 30
0.0
 10
897.2923484254233
 20
-971.0770522634125
 30
0.0
 10
897.1023413516099
 20
-972.6437870768865
 30
0.0
 10
896.6748497027311
 20
-974.5821108204407
 30
0.0
 10
896.0388006269859
 20
-976.5641535013916
 30
0.0
 10
895.2096944186052
 20
-978.5439713592851
 30
0.0
 10
894.2032927819556
 20
-980.4792018565923
 30
0.0
 10
893.0411917159684
 20
-982.3274385428791
 30
0.0
 10
891.7487896238407
 20
-984.048497336438
 30
0.0
 10
890.3551357344934
 20
-985.6052211322727
 30
0.0
 10
888.8921580593523
 20
-986.9646299896955
 30
0.0
 10
887.3940420467577
 20
-988.098835232433
 30
0.0
 10
885.8962542972299
 20
-988.9863397160476
 30
0.0
 10
884.4349035746202
 20
-989.6121871929148
 30
0.0
 10
883.0430746060704
 20
-989.9722563427745
 30
0.0
 10
881.7542658358403
 20
-990.0607096387461
 30
0.0
 10
880.6266532680822
 20
-989.9221930292849
 30
0.0
 10
880.0033430793987
 20
-989.6360809641583
 30
0.0
 10
879.7117054972114
 20
-989.5022133771636
 30
0.0
  0
SPLINE
  5
1FB
330
1F
100
AcDbEntity
  8
0
  6
Continuous
 62
     7
370
    25
100
AcDbSpline
210
0.0
220
0.0
230
1.0
 70
     8
 71
     3
 72
    13
 73
     9
 74
     0
 42
0.00000001
 43
0.00000001
 40
0.0
 40
0.0
 40
0.0
 40
0.0
 40
0.1451954536213823
 40
0.3564335646209157
 40
0.5609547707297948
 40
0.7605057691250088
 40
0.9464438471341541
 40
1.0
 40
1.0
 40
1.0
 40
1.0
 10
1138.642659842378
 20
-435.5064218556375
 30
0.0
 10
1138.858506014594
 20
-435.6636876591177
 30
0.0
 10
1139.388376741631
 20
-436.0497521640962
 30
0.0
 10
1140.04533454502
 20
-436.9724681258004
 30
0.0
 10
1140.61468328387
 20
-438.2138234908014
 30
0.0
 10
1140.965988390161
 20
-439.6432075494702
 30
0.0
 10
1141.086823048017
 20
-440.8407220518017
 30
0.0
 10
1141.094097867865
 20
-441.5358365677567
 30
0.0
 10
1141.095724676838
 20
-441.6912793904908
 30
0.0
  0
SPLINE
  5
1FC
330
1F
100
AcDbEntity
  8
0
  6
Continuous
 62
     7
370
    25
100
AcDbSpline
210
0.0
220
0.0
230
1.0
 70
     8
 71
     3
 72
    24
 73
    20
 74
     0
 42
0.00000001
 43
0.00000001
 40
0.0
 40
0.0
 40
0.0
 40
0.0
 40
0.0317280596900368
 40
0.0925115510741144
 40
0.1534387045847255
 40
0.2144889895653005
 40
0.2756453849585405
 40
0.3368712853027643
 40
0.3981230335368978
 40
0.459347409855694
 40
0.5204890863149189
 40
0.5815017374963803
 40
0.6423447167238021
 40
0.7029964544315194
 40
0.7634855172082671
 40
0.8239286581870809
 40
0.8845697692573338
 40
0.945991908978332
 40
1.0
 40
1.0
 40
1.0
 40
1.0
 10
1141.095724676838
 20
-441.6912793904908
 30
0.0
 10
1141.089936365454
 20
-441.9952588383029
 30
0.0
 10
1141.073059012427
 20
-442.8815913303143
 30
0.0
 10
1140.883051938614
 20
-444.448326143788
 30
0.0
 10
1140.455560289736
 20
-446.3866498873419
 30
0.0
 10
1139.81951121399
 20
-448.3686925682927
 30
0.0
 10
1138.99040500561
 20
-450.3485104261864
 30
0.0
 10
1137.98400336896
 20
-452.2837409234934
 30
0.0
 10
1136.821902302974
 20
-454.1319776097798
 30
0.0
 10
1135.529500210846
 20
-455.8530364033389
 30
0.0
 10
1134.135846321499
 20
-457.4097601991735
 30
0.0
 10
1132.672868646358
 20
-458.7691690565964
 30
0.0
 10
1131.174752633763
 20
-459.9033742993345
 30
0.0
 10
1129.676964884235
 20
-460.7908787829492
 30
0.0
 10
1128.215614161625
 20
-461.4167262598168
 30
0.0
 10
1126.823785193075
 20
-461.7767954096762
 30
0.0
 10
1125.534976422845
 20
-461.8652487056482
 30
0.0
 10
1124.407363855087
 20
-461.726732096187
 30
0.0
 10
1123.784053666403
 20
-461.4406200310605
 30
0.0
 10
1123.492416084216
 20
-461.3067524440658
 30
0.0
  0
SPLINE
  5
1FD
330
1F
100
AcDbEntity
  8
0
  6
Continuous
 62
     7
370
    25
100
AcDbSpline
210
0.0
220
0.0
230
1.0
 70
     8
 71
     3
 72
    13
 73
     9
 74
     0
 42
0.00000001
 43
0.00000001
 40
0.0
 40
0.0
 40
0.0
 40
0.0
 40
0.1451954536213796
 40
0.3564335646208781
 40
0.5609547707297647
 40
0.7605057691249894
 40
0.9464438471341399
 40
1.0
 40
1.0
 40
1.0
 40
1.0
 10
882.3164516621891
 20
-879.4764364321501
 30
0.0
 10
882.5322978344053
 20
-879.6337022356304
 30
0.0
 10
883.0621685614421
 20
-880.0197667406087
 30
0.0
 10
883.7191263648311
 20
-880.9424827023129
 30
0.0
 10
884.2884751036815
 20
-882.1838380673139
 30
0.0
 10
884.6397802099726
 20
-883.6132221259827
 30
0.0
 10
884.7606148678286
 20
-884.8107366283144
 30
0.0
 10
884.767889687676
 20
-885.5058511442694
 30
0.0
 10
884.7695164966491
 20
-885.6612939670035
 30
0.0
  0
SPLINE
  5
1FE
330
1F
100
AcDbEntity
  8
0
  6
Continuous
 62
     7
370
    25
100
AcDbSpline
210
0.0
220
0.0
230
1.0
 70
     8
 71
     3
 72
    24
 73
    20
 74
     0
 42
0.00000001
 43
0.00000001
 40
0.0
 40
0.0
 40
0.0
 40
0.0
 40
0.0317280596900363
 40
0.0925115510741393
 40
0.153438704584753
 40
0.2144889895653168
 40
0.2756453849585606
 40
0.3368712853027907
 40
0.3981230335369229
 40
0.4593474098557256
 40
0.5204890863149408
 40
0.5815017374964083
 40
0.6423447167238154
 40
0.7029964544315381
 40
0.7634855172082792
 40
0.8239286581870925
 40
0.8845697692573355
 40
0.9459919089783471
 40
1.0
 40
1.0
 40
1.0
 40
1.0
 10
884.7695164966492
 20
-885.6612939670035
 30
0.0
 10
884.7637281852653
 20
-885.9652734148157
 30
0.0
 10
884.746850832239
 20
-886.8516059068273
 30
0.0
 10
884.5568437584255
 20
-888.4183407203014
 30
0.0
 10
884.1293521095469
 20
-890.3566644638554
 30
0.0
 10
883.4933030338017
 20
-892.3387071448063
 30
0.0
 10
882.664196825421
 20
-894.3185250027
 30
0.0
 10
881.6577951887714
 20
-896.2537555000071
 30
0.0
 10
880.4956941227844
 20
-898.1019921862937
 30
0.0
 10
879.2032920306567
 20
-899.8230509798526
 30
0.0
 10
877.8096381413094
 20
-901.3797747756873
 30
0.0
 10
876.3466604661685
 20
-902.73918363311
 30
0.0
 10
874.8485444535736
 20
-903.8733888758477
 30
0.0
 10
873.3507567040461
 20
-904.7608933594624
 30
0.0
 10
871.8894059814362
 20
-905.3867408363296
 30
0.0
 10
870.4975770128866
 20
-905.7468099861891
 30
0.0
 10
869.2087682426562
 20
-905.8352632821611
 30
0.0
 10
868.0811556748982
 20
-905.6967466726998
 30
0.0
 10
867.4578454862148
 20
-905.4106346075732
 30
0.0
 10
867.1662079040273
 20
-905.2767670205786
 30
0.0
  0
SPLINE
  5
1FF
330
1F
100
AcDbEntity
  8
0
  6
Continuous
 62
     7
370
    25
100
AcDbSpline
210
0.0
220
0.0
230
1.0
 70
     8
 71
     3
 72
    13
 73
     9
 74
     0
 42
0.00000001
 43
0.00000001
 40
0.0
 40
0.0
 40
0.0
 40
0.0
 40
0.1451954536213237
 40
0.3564335646208576
 40
0.5609547707296976
 40
0.7605057691248928
 40
0.9464438471340225
 40
1.0
 40
1.0
 40
1.0
 40
1.0
 10
1059.433505411014
 20
-495.7199709648601
 30
0.0
 10
1059.64935158323
 20
-495.8772367683403
 30
0.0
 10
1060.179222310267
 20
-496.2633012733185
 30
0.0
 10
1060.836180113656
 20
-497.1860172350226
 30
0.0
 10
1061.405528852507
 20
-498.4273726000235
 30
0.0
 10
1061.756833958798
 20
-499.8567566586919
 30
0.0
 10
1061.877668616654
 20
-501.0542711610241
 30
0.0
 10
1061.884943436501
 20
-501.7493856769792
 30
0.0
 10
1061.886570245475
 20
-501.9048284997139
 30
0.0
  0
SPLINE
  5
200
330
1F
100
AcDbEntity
  8
0
  6
Continuous
 62
     7
370
    25
100
AcDbSpline
210
0.0
220
0.0
230
1.0
 70
     8
 71
     3
 72
    24
 73
    20
 74
     0
 42
0.00000001
 43
0.00000001
 40
0.0
 40
0.0
 40
0.0
 40
0.0
 40
0.0317280596900365
 40
0.0925115510741102
 40
0.1534387045847221
 40
0.2144889895652967
 40
0.2756453849585342
 40
0.3368712853027562
 40
0.3981230335368989
 40
0.459347409855702
 40
0.5204890863149226
 40
0.5815017374963931
 40
0.642344716723791
 40
0.7029964544315271
 40
0.7634855172082721
 40
0.8239286581870946
 40
0.8845697692573328
 40
0.9459919089783518
 40
1.0
 40
1.0
 40
1.0
 40
1.0
 10
1061.886570245475
 20
-501.9048284997139
 30
0.0
 10
1061.88078193409
 20
-502.208807947526
 30
0.0
 10
1061.863904581064
 20
-503.0951404395372
 30
0.0
 10
1061.673897507251
 20
-504.661875253011
 30
0.0
 10
1061.246405858372
 20
-506.6001989965648
 30
0.0
 10
1060.610356782627
 20
-508.5822416775156
 30
0.0
 10
1059.781250574247
 20
-510.5620595354092
 30
0.0
 10
1058.774848937597
 20
-512.4972900327163
 30
0.0
 10
1057.61274787161
 20
-514.345526719003
 30
0.0
 10
1056.320345779482
 20
-516.0665855125621
 30
0.0
 10
1054.926691890135
 20
-517.6233093083971
 30
0.0
 10
1053.463714214994
 20
-518.9827181658197
 30
0.0
 10
1051.965598202399
 20
-520.1169234085576
 30
0.0
 10
1050.467810452872
 20
-521.0044278921724
 30
0.0
 10
1049.006459730261
 20
-521.6302753690399
 30
0.0
 10
1047.614630761712
 20
-521.9903445188992
 30
0.0
 10
1046.325821991481
 20
-522.0787978148711
 30
0.0
 10
1045.198209423723
 20
-521.9402812054101
 30
0.0
 10
1044.57489923504
 20
-521.6541691402834
 30
0.0
 10
1044.283261652853
 20
-521.5203015532886
 30
0.0
  0
SPLINE
  5
201
330
1F
100
AcDbEntity
  8
0
  6
Continuous
 62
     7
370
    25
100
AcDbSpline
210
0.0
220
0.0
230
1.0
 70
     8
 71
     3
 72
    13
 73
     9
 74
     0
 42
0.00000001
 43
0.00000001
 40
0.0
 40
0.0
 40
0.0
 40
0.0
 40
0.1451954536213921
 40
0.3564335646208869
 40
0.5609547707297358
 40
0.760505769124961
 40
0.946443847134111
 40
1.0
 40
1.0
 40
1.0
 40
1.0
 10
894.8619492553869
 20
-780.7662668704716
 30
0.0
 10
895.0777954276032
 20
-780.9235326739517
 30
0.0
 10
895.6076661546399
 20
-781.3095971789301
 30
0.0
 10
896.2646239580291
 20
-782.2323131406342
 30
0.0
 10
896.8339726968793
 20
-783.4736685056353
 30
0.0
 10
897.1852778031705
 20
-784.9030525643038
 30
0.0
 10
897.3061124610264
 20
-786.1005670666357
 30
0.0
 10
897.3133872808738
 20
-786.7956815825908
 30
0.0
 10
897.3150140898472
 20
-786.951124405325
 30
0.0
  0
SPLINE
  5
202
330
1F
100
AcDbEntity
  8
0
  6
Continuous
 62
     7
370
    25
100
AcDbSpline
210
0.0
220
0.0
230
1.0
 70
     8
 71
     3
 72
    24
 73
    20
 74
     0
 42
0.00000001
 43
0.00000001
 40
0.0
 40
0.0
 40
0.0
 40
0.0
 40
0.031728059690036
 40
0.0925115510741386
 40
0.1534387045847518
 40
0.2144889895653153
 40
0.2756453849585699
 40
0.3368712853027857
 40
0.3981230335369277
 40
0.459347409855734
 40
0.5204890863149529
 40
0.5815017374964208
 40
0.6423447167238286
 40
0.7029964544315492
 40
0.7634855172082917
 40
0.8239286581871054
 40
0.8845697692573492
 40
0.9459919089783632
 40
1.0
 40
1.0
 40
1.0
 40
1.0
 10
897.3150140898472
 20
-786.951124405325
 30
0.0
 10
897.3092257784632
 20
-787.2551038531371
 30
0.0
 10
897.2923484254369
 20
-788.1414363451488
 30
0.0
 10
897.1023413516235
 20
-789.7081711586229
 30
0.0
 10
896.6748497027448
 20
-791.6464949021769
 30
0.0
 10
896.0388006269997
 20
-793.6285375831279
 30
0.0
 10
895.2096944186187
 20
-795.6083554410214
 30
0.0
 10
894.2032927819693
 20
-797.5435859383286
 30
0.0
 10
893.0411917159822
 20
-799.3918226246153
 30
0.0
 10
891.7487896238542
 20
-801.1128814181744
 30
0.0
 10
890.355135734507
 20
-802.6696052140092
 30
0.0
 10
888.892158059366
 20
-804.0290140714318
 30
0.0
 10
887.394042046771
 20
-805.1632193141694
 30
0.0
 10
885.8962542972436
 20
-806.050723797784
 30
0.0
 10
884.4349035746335
 20
-806.6765712746512
 30
0.0
 10
883.0430746060839
 20
-807.0366404245107
 30
0.0
 10
881.7542658358537
 20
-807.1250937204824
 30
0.0
 10
880.6266532680958
 20
-806.9865771110211
 30
0.0
 10
880.0033430794125
 20
-806.7004650458945
 30
0.0
 10
879.711705497225
 20
-806.5665974588998
 30
0.0
  0
SPLINE
  5
203
330
1F
100
AcDbEntity
  8
0
  6
Continuous
 62
     7
370
    25
100
AcDbSpline
210
0.0
220
0.0
230
1.0
 70
     8
 71
     3
 72
    13
 73
     9
 74
     0
 42
0.00000001
 43
0.00000001
 40
0.0
 40
0.0
 40
0.0
 40
0.0
 40
0.1451954536213792
 40
0.3564335646209122
 40
0.5609547707297696
 40
0.7605057691249955
 40
0.9464438471341504
 40
1.0
 40
1.0
 40
1.0
 40
1.0
 10
987.9778948980212
 20
-579.0135534974454
 30
0.0
 10
988.1937410702375
 20
-579.1708193009257
 30
0.0
 10
988.7236117972743
 20
-579.5568838059041
 30
0.0
 10
989.3805696006634
 20
-580.4795997676081
 30
0.0
 10
989.9499183395137
 20
-581.7209551326094
 30
0.0
 10
990.3012234458048
 20
-583.1503391912778
 30
0.0
 10
990.4220581036606
 20
-584.34785369361
 30
0.0
 10
990.4293329235081
 20
-585.0429682095647
 30
0.0
 10
990.4309597324814
 20
-585.1984110322987
 30
0.0
  0
SPLINE
  5
204
330
1F
100
AcDbEntity
  8
0
  6
Continuous
 62
     7
370
    25
100
AcDbSpline
210
0.0
220
0.0
230
1.0
 70
     8
 71
     3
 72
    24
 73
    20
 74
     0
 42
0.00000001
 43
0.00000001
 40
0.0
 40
0.0
 40
0.0
 40
0.0
 40
0.0317280596900364
 40
0.0925115510741211
 40
0.15343870458473
 40
0.2144889895653082
 40
0.2756453849585471
 40
0.3368712853027679
 40
0.3981230335369115
 40
0.4593474098557215
 40
0.5204890863149227
 40
0.5815017374963983
 40
0.642344716723802
 40
0.7029964544315217
 40
0.7634855172082607
 40
0.8239286581870789
 40
0.8845697692573105
 40
0.9459919089783259
 40
1.0
 40
1.0
 40
1.0
 40
1.0
 10
990.4309597324814
 20
-585.1984110322987
 30
0.0
 10
990.4251714210974
 20
-585.5023904801109
 30
0.0
 10
990.4082940680712
 20
-586.3887229721223
 30
0.0
 10
990.2182869942578
 20
-587.9554577855963
 30
0.0
 10
989.7907953453791
 20
-589.8937815291501
 30
0.0
 10
989.1547462696342
 20
-591.8758242101011
 30
0.0
 10
988.3256400612534
 20
-593.8556420679946
 30
0.0
 10
987.3192384246039
 20
-595.7908725653018
 30
0.0
 10
986.1571373586168
 20
-597.6391092515885
 30
0.0
 10
984.864735266489
 20
-599.3601680451475
 30
0.0
 10
983.471081377142
 20
-600.9168918409822
 30
0.0
 10
982.008103702001
 20
-602.276300698405
 30
0.0
 10
980.5099876894061
 20
-603.4105059411427
 30
0.0
 10
979.0121999398787
 20
-604.2980104247574
 30
0.0
 10
977.5508492172686
 20
-604.9238579016248
 30
0.0
 10
976.1590202487191
 20
-605.2839270514842
 30
0.0
 10
974.8702114784888
 20
-605.3723803474562
 30
0.0
 10
973.7425989107306
 20
-605.2338637379952
 30
0.0
 10
973.119288722047
 20
-604.9477516728685
 30
0.0
 10
972.8276511398593
 20
-604.8138840858737
 30
0.0
  0
SPLINE
  5
205
330
1F
100
AcDbEntity
  8
0
  6
Continuous
 62
     7
370
    25
100
AcDbSpline
210
0.0
220
0.0
230
1.0
 70
     8
 71
     3
 72
    13
 73
     9
 74
     0
 42
0.00000001
 43
0.00000001
 40
0.0
 40
0.0
 40
0.0
 40
0.0
 40
0.1451954536214118
 40
0.356433564620971
 40
0.5609547707298473
 40
0.7605057691250654
 40
0.9464438471342441
 40
1.0
 40
1.0
 40
1.0
 40
1.0
 10
931.2704013209236
 20
-677.2338132545892
 30
0.0
 10
931.4862474931399
 20
-677.3910790580695
 30
0.0
 10
932.0161182201767
 20
-677.7771435630478
 30
0.0
 10
932.6730760235658
 20
-678.6998595247524
 30
0.0
 10
933.242424762416
 20
-679.9412148897536
 30
0.0
 10
933.5937298687069
 20
-681.3705989484221
 30
0.0
 10
933.7145645265626
 20
-682.5681134507538
 30
0.0
 10
933.7218393464101
 20
-683.2632279667084
 30
0.0
 10
933.7234661553833
 20
-683.4186707894423
 30
0.0
  0
SPLINE
  5
206
330
1F
100
AcDbEntity
  8
0
  6
Continuous
 62
     7
370
    25
100
AcDbSpline
210
0.0
220
0.0
230
1.0
 70
     8
 71
     3
 72
    24
 73
    20
 74
     0
 42
0.00000001
 43
0.00000001
 40
0.0
 40
0.0
 40
0.0
 40
0.0
 40
0.0317280596900361
 40
0.0925115510741392
 40
0.153438704584752
 40
0.214488989565315
 40
0.2756453849585583
 40
0.3368712853027866
 40
0.3981230335369282
 40
0.4593474098557337
 40
0.5204890863149462
 40
0.5815017374964206
 40
0.642344716723827
 40
0.7029964544315508
 40
0.7634855172082888
 40
0.8239286581870938
 40
0.8845697692573425
 40
0.9459919089783556
 40
1.0
 40
1.0
 40
1.0
 40
1.0
 10
933.7234661553833
 20
-683.4186707894423
 30
0.0
 10
933.7176778439994
 20
-683.7226502372545
 30
0.0
 10
933.7008004909732
 20
-684.608982729266
 30
0.0
 10
933.5107934171598
 20
-686.1757175427402
 30
0.0
 10
933.0833017682809
 20
-688.1140412862942
 30
0.0
 10
932.447252692536
 20
-690.0960839672451
 30
0.0
 10
931.6181464841551
 20
-692.0759018251385
 30
0.0
 10
930.6117448475056
 20
-694.0111323224459
 30
0.0
 10
929.4496437815183
 20
-695.8593690087324
 30
0.0
 10
928.1572416893905
 20
-697.5804278022915
 30
0.0
 10
926.7635878000434
 20
-699.1371515981263
 30
0.0
 10
925.3006101249022
 20
-700.496560455549
 30
0.0
 10
923.8024941123074
 20
-701.6307656982866
 30
0.0
 10
922.3047063627796
 20
-702.5182701819012
 30
0.0
 10
920.8433556401701
 20
-703.1441176587686
 30
0.0
 10
919.4515266716203
 20
-703.5041868086278
 30
0.0
 10
918.1627179013902
 20
-703.5926401045997
 30
0.0
 10
917.035105333632
 20
-703.4541234951384
 30
0.0
 10
916.4117951449488
 20
-703.1680114300117
 30
0.0
 10
916.1201575627613
 20
-703.0341438430171
 30
0.0
  0
LWPOLYLINE
  5
207
330
1F
100
AcDbEntity
  8
0
  6
Continuous
 62
     7
370
    25
100
AcDbPolyline
 90
      213
 70
   128
 43
0.0
 10
1411.8569616995
 20
-581.1410682571
 10
1411.7332133097
 20
-571.5700732906
 10
1411.3620768317
 20
-562.150361637
 10
1410.7438782447
 20
-552.8902068831
 10
1409.8791605293
 20
-543.7977424727
 10
1408.7686831903
 20
-534.8809545627
 10
1407.4134215899
 20
-526.1476750085
 10
1405.8145660911
 20
-517.6055744851
 10
1403.9735210116
 20
-509.2621557499
 10
1401.8919033911
 20
-501.1247470527
 10
1399.5715415706
 20
-493.2004956992
 10
1397.0144735863
 20
-485.4963617731
 10
1394.2229453801
 20
-478.0191120231
 10
1391.1994088265
 20
-470.7753139195
 10
1387.9465195794
 20
-463.7713298855
 10
1384.467134739
 20
-457.0133117094
 10
1380.7643103429
 20
-450.5071951408
 10
1376.8412986819
 20
-444.2586946775
 10
1372.7015454427
 20
-438.273298546
 10
1368.3486866825
 20
-432.5562638813
 10
1363.7865456345
 20
-427.1126121092
 10
1359.0191293502
 20
-421.9471245358
 10
1354.0506251801
 20
-417.0643381483
 10
1348.8853970955
 20
-412.4685416298
 10
1343.5279818554
 20
-408.1637715923
 10
1337.9830850224
 20
-404.1538090315
 10
1332.2555768288
 20
-400.4421760057
 10
1326.3504878997
 20
-397.0321325424
 10
1320.273004834
 20
-393.9266737747
 10
1314.0284656491
 20
-391.1285273109
 10
1307.6223550922
 20
-388.6401508385
 10
1301.0602998231
 20
-386.4637299657
 10
1294.348063472
 20
-384.6011763017
 10
1287.4915415772
 20
-383.0541257777
 10
1280.4967564068
 20
-381.8239372097
 10
1273.3698516695
 20
-380.9116911057
 10
1266.1170871179
 20
-380.3181887161
 10
1258.7448330509
 20
-380.0439513299
 10
1251.2595647182
 20
-380.0892198173
 10
1243.6678566328
 20
-380.4539544178
 10
1235.9763767968
 20
-381.137834775
 10
1228.1918808446
 20
-382.1402602185
 10
1220.3212061089
 20
-383.460350291
 10
1212.3712656157
 20
-385.0969455216
 10
1204.3490420123
 20
-387.0486084446
 10
1196.2615814341
 20
-389.3136248619
 10
1188.115987316
 20
-391.8900053484
 10
1179.9194141531
 20
-394.7754869996
 10
1171.6790612167
 20
-397.9675354191
 10
1163.4021662313
 20
-401.4633469447
 10
1155.0959990168
 20
-405.2598511107
 10
1146.7678551043
 20
-409.3537133451
 10
1138.4250493271
 20
-413.7413378984
 10
1130.0749093967
 20
-418.4188710013
 10
1121.7247694663
 20
-423.3822042504
 10
1113.3819636891
 20
-428.6269782162
 10
1105.0538197765
 20
-434.1485862721
 10
1096.7476525621
 20
-439.9421786409
 10
1088.4707575766
 20
-446.0026666541
 10
1080.2304046402
 20
-452.3247272214
 10
1072.0338314773
 20
-458.9028075065
 10
1063.8882373592
 20
-465.7311298041
 10
1055.800776781
 20
-472.8036966143
 10
1047.7785531776
 20
-480.1142959109
 10
1039.8286126845
 20
-487.6565065973
 10
1031.9579379488
 20
-495.4237041464
 10
1024.1734419965
 20
-503.4090664189
 10
1016.4819621605
 20
-511.6055796558
 10
1008.8902540752
 20
-520.0060446382
 10
1001.4049857424
 20
-528.6030830111
 10
994.0327316754
 20
-537.3891437638
 10
986.7799671238
 20
-546.356509862
 10
979.6530623865
 20
-555.4973050261
 10
972.6582772162
 20
-564.803500649
 10
965.8017553213
 20
-574.2669228482
 10
959.0895189702
 20
-583.8792596444
 10
952.5274637011
 20
-593.6320682629
 10
946.1213531443
 20
-603.5167825488
 10
939.8768139593
 20
-613.5247204908
 10
933.7993308936
 20
-623.647091847
 10
927.8942419645
 20
-633.8750058654
 10
922.166733771
 20
-644.1994790932
 10
916.6218369379
 20
-654.611443267
 10
911.2644216978
 20
-665.1017532777
 10
906.0991936132
 20
-675.6611952031
 10
901.1306894431
 20
-686.2804944002
 10
896.3632731589
 20
-696.9503236521
 10
891.8011321108
 20
-707.6613113599
 10
887.4482733506
 20
-718.4040497741
 10
883.3085201115
 20
-729.1691032576
 10
879.3855084504
 20
-739.9470165736
 10
875.6826840544
 20
-750.7283231898
 10
872.203299214
 20
-761.5035535939
 10
868.9504099668
 20
-772.2632436102
 10
865.9268734133
 20
-782.9979427126
 10
863.1353452071
 20
-793.6982223253
 10
860.5782772228
 20
-804.354684104
 10
858.2579154022
 20
-814.9579681908
 10
856.1762977817
 20
-825.4987614351
 10
854.3352527022
 20
-835.9678055738
 10
852.7363972034
 20
-846.355905363
 10
851.381135603
 20
-856.6539366543
 10
850.2706582641
 20
-866.852854409
 10
849.4059405486
 20
-876.9437006425
 10
848.7877419617
 20
-886.9176122921
 10
848.4166054837
 20
-896.7658290023
 10
848.2928570938
 20
-906.4797008184
 10
848.4166054837
 20
-916.0506957849
 10
848.7877419617
 20
-925.4704074385
 10
849.4059405486
 20
-934.7305621924
 10
850.2706582641
 20
-943.8230266028
 10
851.381135603
 20
-952.7398145128
 10
852.7363972034
 20
-961.473094067
 10
854.3352527022
 20
-970.0151945904
 10
856.1762977817
 20
-978.3586133256
 10
858.2579154022
 20
-986.4960220228
 10
860.5782772228
 20
-994.4202733763
 10
863.1353452071
 20
-1002.1244073024
 10
865.9268734133
 20
-1009.6016570524
 10
868.9504099668
 20
-1016.845455156
 10
872.203299214
 20
-1023.84943919
 10
875.6826840544
 20
-1030.6074573661
 10
879.3855084504
 20
-1037.1135739347
 10
883.3085201115
 20
-1043.362074398
 10
887.4482733506
 20
-1049.3474705295
 10
891.8011321108
 20
-1055.0645051942
 10
896.3632731589
 20
-1060.5081569663
 10
901.1306894431
 20
-1065.6736445397
 10
906.0991936132
 20
-1070.5564309272
 10
911.2644216979
 20
-1075.1522274457
 10
916.6218369379
 20
-1079.4569974832
 10
922.166733771
 20
-1083.466960044
 10
927.8942419645
 20
-1087.1785930698
 10
933.7993308936
 20
-1090.5886365331
 10
939.8768139593
 20
-1093.6940953008
 10
946.1213531443
 20
-1096.4922417646
 10
952.5274637011
 20
-1098.980618237
 10
959.0895189702
 20
-1101.1570391097
 10
965.8017553214
 20
-1103.0195927738
 10
972.6582772162
 20
-1104.5666432978
 10
979.6530623865
 20
-1105.7968318658
 10
986.7799671238
 20
-1106.7090779698
 10
994.0327316754
 20
-1107.3025803594
 10
1001.4049857424
 20
-1107.5768177456
 10
1008.8902540752
 20
-1107.5315492582
 10
1016.4819621605
 20
-1107.1668146577
 10
1024.1734419965
 20
-1106.4829343005
 10
1031.9579379488
 20
-1105.4805088569
 10
1039.8286126845
 20
-1104.1604187845
 10
1047.7785531776
 20
-1102.5238235539
 10
1055.800776781
 20
-1100.5721606309
 10
1063.8882373592
 20
-1098.3071442136
 10
1072.0338314773
 20
-1095.7307637271
 10
1080.2304046402
 20
-1092.8452820759
 10
1088.4707575766
 20
-1089.6532336564
 10
1096.7476525621
 20
-1086.1574221308
 10
1105.0538197765
 20
-1082.3609179648
 10
1113.3819636891
 20
-1078.2670557303
 10
1121.7247694663
 20
-1073.8794311771
 10
1130.0749093967
 20
-1069.2018980742
 10
1138.4250493271
 20
-1064.2385648251
 10
1146.7678551043
 20
-1058.9937908593
 10
1155.0959990168
 20
-1053.4721828034
 10
1163.4021662313
 20
-1047.6785904346
 10
1171.6790612168
 20
-1041.6181024214
 10
1179.9194141531
 20
-1035.2960418541
 10
1188.115987316
 20
-1028.717961569
 10
1196.2615814341
 20
-1021.8896392714
 10
1204.3490420123
 20
-1014.8170724612
 10
1212.3712656157
 20
-1007.5064731646
 10
1220.3212061089
 20
-999.9642624782
 10
1228.1918808446
 20
-992.1970649291
 10
1235.9763767968
 20
-984.2117026566
 10
1243.6678566328
 20
-976.0151894197
 10
1251.2595647182
 20
-967.6147244373
 10
1258.7448330509
 20
-959.0176860644
 10
1266.1170871179
 20
-950.2316253117
 10
1273.3698516695
 20
-941.2642592135
 10
1280.4967564068
 20
-932.1234640494
 10
1287.4915415772
 20
-922.8172684264
 10
1294.348063472
 20
-913.3538462273
 10
1301.0602998231
 20
-903.7415094311
 10
1307.6223550922
 20
-893.9887008126
 10
1314.0284656491
 20
-884.1039865266
 10
1320.273004834
 20
-874.0960485847
 10
1326.3504878997
 20
-863.9736772285
 10
1332.2555768288
 20
-853.7457632101
 10
1337.9830850224
 20
-843.4212899823
 10
1343.5279818554
 20
-833.0093258085
 10
1348.8853970955
 20
-822.5190157978
 10
1354.0506251801
 20
-811.9595738724
 10
1359.0191293502
 20
-801.3402746753
 10
1363.7865456345
 20
-790.6704454234
 10
1368.3486866825
 20
-779.9594577155
 10
1372.7015454427
 20
-769.2167193014
 10
1376.8412986819
 20
-758.4516658178
 10
1380.7643103429
 20
-747.6737525019
 10
1384.467134739
 20
-736.8924458857
 10
1387.9465195794
 20
-726.1172154816
 10
1391.1994088265
 20
-715.3575254653
 10
1394.2229453801
 20
-704.6228263629
 10
1397.0144735863
 20
-693.9225467501
 10
1399.5715415706
 20
-683.2660849715
 10
1401.8919033911
 20
-672.6628008847
 10
1403.9735210116
 20
-662.1220076404
 10
1405.8145660911
 20
-651.6529635017
 10
1407.4134215899
 20
-641.2648637125
 10
1408.7686831903
 20
-630.9668324212
 10
1409.8791605293
 20
-620.7679146664
 10
1410.7438782447
 20
-610.677068433
 10
1411.3620768317
 20
-600.7031567834
 10
1411.7332133097
 20
-590.8549400732
 10
1411.8569616995
 20
-581.1410682571
  0
ARC
  5
208
330
1F
100
AcDbEntity
  8
0
  6
Continuous
 62
     7
370
    25
100
AcDbCircle
 10
1000.4301570096
 20
-970.0048598428
 30
0.0
 40
138.6886154354879
100
AcDbArc
 50
214.1605454496
 51
265.6198944064
  0
ARC
  5
209
330
1F
100
AcDbEntity
  8
0
  6
Continuous
 62
     7
370
    25
100
AcDbCircle
 10
1261.1952772239
 20
-518.3245636054
 30
0.0
 40
138.5671766430341
100
AcDbArc
 50
34.5100228978
 51
85.2852269028
  0
ARC
  5
20A
330
1F
100
AcDbEntity
  8
0
  6
Continuous
 62
     7
370
    25
100
AcDbCircle
 10
1292.8906473109
 20
-540.0387642408
 30
0.0
 40
141.6252909354677
100
AcDbArc
 50
34.418477183
 51
59.6473237002
  0
ARC
  5
20B
330
1F
100
AcDbEntity
  8
0
  6
Continuous
 62
     7
370
    25
100
AcDbCircle
 10
1035.0830735488
 20
-986.5941697074
 30
0.0
 40
141.7481326241632
100
AcDbArc
 50
240.3635649407
 51
265.8655731629
  0
LWPOLYLINE
  5
20C
330
1F
100
AcDbEntity
  8
0
  6
Continuous
 62
     7
370
    25
100
AcDbPolyline
 90
       43
 70
   128
 43
0.0
 10
990.7238529513
 20
-584.7902069764
 10
990.597488175
 20
-586.8103412974
 10
990.2212166265
 20
-588.9312468211
 10
989.6034435904
 20
-591.1055460226
 10
988.7579690955
 20
-593.2846686507
 10
987.7036796448
 20
-595.4199367069
 10
986.4641263226
 20
-597.4636518312
 10
985.0669987018
 20
-599.3701608048
 10
983.5435063047
 20
-601.0968753677
 10
981.927681434
 20
-602.6052235698
 10
980.2556189472
 20
-603.8615114048
 10
978.5646699574
 20
-604.8376754784
 10
976.8926074706
 20
-605.5119098983
 10
975.2767825999
 20
-605.8691533817
 10
973.7532902028
 20
-605.9014256994
 10
972.356162582
 20
-605.6080059412
 10
971.1166092598
 20
-604.9954486197
 10
970.0623198091
 20
-604.0774372532
 10
969.2168453142
 20
-602.8744786987
 10
968.5990722781
 20
-601.4134450624
 10
968.2228007296
 20
-599.7269734214
 10
968.0964359533
 20
-597.8527367656
 10
968.2228007296
 20
-595.8326024445
 10
968.5990722781
 20
-593.7116969209
 10
969.2168453142
 20
-591.5373977194
 10
970.0623198091
 20
-589.3582750912
 10
971.1166092598
 20
-587.223007035
 10
972.356162582
 20
-585.1792919107
 10
973.7532902028
 20
-583.2727829371
 10
975.2767825999
 20
-581.5460683743
 10
976.8926074706
 20
-580.0377201721
 10
978.5646699574
 20
-578.7814323371
 10
980.2556189472
 20
-577.8052682635
 10
981.927681434
 20
-577.1310338436
 10
983.5435063047
 20
-576.7737903603
 10
985.0669987018
 20
-576.7415180426
 10
986.4641263226
 20
-577.0349378007
 10
987.7036796448
 20
-577.6474951222
 10
988.7579690955
 20
-578.5655064887
 10
989.6034435904
 20
-579.7684650433
 10
990.2212166265
 20
-581.2294986796
 10
990.597488175
 20
-582.9159703205
 10
990.7238529513
 20
-584.7902069764
  0
LWPOLYLINE
  5
20D
330
1F
100
AcDbEntity
  8
0
  6
Continuous
 62
     7
370
    25
100
AcDbPolyline
 90
       43
 70
   128
 43
0.0
 10
897.6079073087
 20
-786.5429203494
 10
897.4815425324
 20
-788.5630546705
 10
897.1052709839
 20
-790.6839601941
 10
896.4874979478
 20
-792.8582593956
 10
895.6420234528
 20
-795.0373820238
 10
894.5877340022
 20
-797.17265008
 10
893.34818068
 20
-799.2163652042
 10
891.9510530592
 20
-801.1228741778
 10
890.4275606621
 20
-802.8495887407
 10
888.8117357914
 20
-804.3579369428
 10
887.1396733046
 20
-805.6142247778
 10
885.4487243147
 20
-806.5903888515
 10
883.776661828
 20
-807.2646232713
 10
882.1608369573
 20
-807.6218667547
 10
880.6373445602
 20
-807.6541390724
 10
879.2402169394
 20
-807.3607193142
 10
878.0006636172
 20
-806.7481619927
 10
876.9463741665
 20
-805.8301506262
 10
876.1008996716
 20
-804.6271920717
 10
875.4831266355
 20
-803.1661584354
 10
875.106855087
 20
-801.4796867945
 10
874.9804903107
 20
-799.6054501386
 10
875.106855087
 20
-797.5853158175
 10
875.4831266355
 20
-795.4644102939
 10
876.1008996716
 20
-793.2901110924
 10
876.9463741665
 20
-791.1109884642
 10
878.0006636172
 20
-788.975720408
 10
879.2402169394
 20
-786.9320052838
 10
880.6373445602
 20
-785.0254963102
 10
882.1608369573
 20
-783.2987817473
 10
883.776661828
 20
-781.7904335452
 10
885.4487243147
 20
-780.5341457102
 10
887.1396733046
 20
-779.5579816365
 10
888.8117357914
 20
-778.8837472166
 10
890.4275606621
 20
-778.5265037333
 10
891.9510530592
 20
-778.4942314156
 10
893.34818068
 20
-778.7876511737
 10
894.5877340022
 20
-779.4002084953
 10
895.6420234528
 20
-780.3182198618
 10
896.4874979478
 20
-781.5211784163
 10
897.1052709839
 20
-782.9822120526
 10
897.4815425324
 20
-784.6686836935
 10
897.6079073087
 20
-786.5429203494
  0
LWPOLYLINE
  5
20E
330
1F
100
AcDbEntity
  8
0
  6
Continuous
 62
     7
370
    25
100
AcDbPolyline
 90
       43
 70
   128
 43
0.0
 10
897.6079073086
 20
-969.4785362677
 10
897.4815425324
 20
-971.4986705887
 10
897.1052709839
 20
-973.6195761123
 10
896.4874979478
 20
-975.7938753139
 10
895.6420234528
 20
-977.972997942
 10
894.5877340022
 20
-980.1082659982
 10
893.34818068
 20
-982.1519811225
 10
891.9510530592
 20
-984.0584900961
 10
890.4275606621
 20
-985.785204659
 10
888.8117357914
 20
-987.2935528611
 10
887.1396733046
 20
-988.5498406961
 10
885.4487243147
 20
-989.5260047697
 10
883.776661828
 20
-990.2002391896
 10
882.1608369573
 20
-990.557482673
 10
880.6373445602
 20
-990.5897549907
 10
879.2402169393
 20
-990.2963352325
 10
878.0006636171
 20
-989.683777911
 10
876.9463741665
 20
-988.7657665445
 10
876.1008996716
 20
-987.56280799
 10
875.4831266354
 20
-986.1017743536
 10
875.1068550869
 20
-984.4153027127
 10
874.9804903107
 20
-982.5410660568
 10
875.1068550869
 20
-980.5209317358
 10
875.4831266354
 20
-978.4000262122
 10
876.1008996716
 20
-976.2257270107
 10
876.9463741665
 20
-974.0466043825
 10
878.0006636171
 20
-971.9113363263
 10
879.2402169393
 20
-969.867621202
 10
880.6373445602
 20
-967.9611122284
 10
882.1608369573
 20
-966.2343976656
 10
883.776661828
 20
-964.7260494634
 10
885.4487243147
 20
-963.4697616284
 10
887.1396733046
 20
-962.4935975548
 10
888.8117357914
 20
-961.8193631349
 10
890.4275606621
 20
-961.4621196516
 10
891.9510530592
 20
-961.4298473339
 10
893.34818068
 20
-961.723267092
 10
894.5877340022
 20
-962.3358244135
 10
895.6420234528
 20
-963.25383578
 10
896.4874979478
 20
-964.4567943346
 10
897.1052709839
 20
-965.9178279709
 10
897.4815425324
 20
-967.6042996118
 10
897.6079073086
 20
-969.4785362677
  0
LWPOLYLINE
  5
20F
330
1F
100
AcDbEntity
  8
0
  6
Continuous
 62
     7
370
    25
100
AcDbPolyline
 90
       43
 70
   128
 43
0.0
 10
990.7238529513
 20
-1063.7218672033
 10
990.597488175
 20
-1065.7420015243
 10
990.2212166265
 20
-1067.862907048
 10
989.6034435904
 20
-1070.0372062495
 10
988.7579690954
 20
-1072.2163288777
 10
987.7036796448
 20
-1074.3515969338
 10
986.4641263226
 20
-1076.3953120581
 10
985.0669987018
 20
-1078.3018210317
 10
983.5435063047
 20
-1080.0285355946
 10
981.927681434
 20
-1081.5368837967
 10
980.2556189472
 20
-1082.7931716317
 10
978.5646699573
 20
-1083.7693357053
 10
976.8926074706
 20
-1084.4435701252
 10
975.2767825999
 20
-1084.8008136086
 10
973.7532902028
 20
-1084.8330859263
 10
972.356162582
 20
-1084.5396661681
 10
971.1166092598
 20
-1083.9271088466
 10
970.0623198091
 20
-1083.0090974801
 10
969.2168453142
 20
-1081.8061389256
 10
968.5990722781
 20
-1080.3451052893
 10
968.2228007296
 20
-1078.6586336483
 10
968.0964359533
 20
-1076.7843969925
 10
968.2228007296
 20
-1074.7642626714
 10
968.5990722781
 20
-1072.6433571478
 10
969.2168453142
 20
-1070.4690579463
 10
970.0623198091
 20
-1068.2899353181
 10
971.1166092598
 20
-1066.1546672619
 10
972.356162582
 20
-1064.1109521377
 10
973.7532902028
 20
-1062.2044431641
 10
975.2767825999
 20
-1060.4777286012
 10
976.8926074706
 20
-1058.969380399
 10
978.5646699573
 20
-1057.713092564
 10
980.2556189472
 20
-1056.7369284904
 10
981.927681434
 20
-1056.0626940705
 10
983.5435063047
 20
-1055.7054505872
 10
985.0669987018
 20
-1055.6731782695
 10
986.4641263226
 20
-1055.9665980276
 10
987.7036796448
 20
-1056.5791553491
 10
988.7579690954
 20
-1057.4971667156
 10
989.6034435904
 20
-1058.7001252702
 10
990.2212166265
 20
-1060.1611589065
 10
990.597488175
 20
-1061.8476305474
 10
990.7238529513
 20
-1063.7218672033
  0
LWPOLYLINE
  5
210
330
1F
100
AcDbEntity
  8
0
  6
Continuous
 62
     7
370
    25
100
AcDbPolyline
 90
       43
 70
   128
 43
0.0
 10
1141.3886178956
 20
-1033.2751639519
 10
1141.2622531193
 20
-1035.2952982729
 10
1140.8859815708
 20
-1037.4162037965
 10
1140.2682085347
 20
-1039.5905029981
 10
1139.4227340398
 20
-1041.7696256262
 10
1138.3684445891
 20
-1043.9048936824
 10
1137.1288912669
 20
-1045.9486088067
 10
1135.7317636461
 20
-1047.8551177803
 10
1134.208271249
 20
-1049.5818323432
 10
1132.5924463783
 20
-1051.0901805453
 10
1130.9203838916
 20
-1052.3464683803
 10
1129.2294349017
 20
-1053.3226324539
 10
1127.5573724149
 20
-1053.9968668738
 10
1125.9415475442
 20
-1054.3541103571
 10
1124.4180551471
 20
-1054.3863826749
 10
1123.0209275263
 20
-1054.0929629167
 10
1121.7813742041
 20
-1053.4804055952
 10
1120.7270847535
 20
-1052.5623942287
 10
1119.8816102585
 20
-1051.3594356741
 10
1119.2638372224
 20
-1049.8984020378
 10
1118.8875656739
 20
-1048.2119303969
 10
1118.7612008976
 20
-1046.337693741
 10
1118.8875656739
 20
-1044.31755942
 10
1119.2638372224
 20
-1042.1966538964
 10
1119.8816102585
 20
-1040.0223546948
 10
1120.7270847535
 20
-1037.8432320667
 10
1121.7813742041
 20
-1035.7079640105
 10
1123.0209275263
 20
-1033.6642488862
 10
1124.4180551471
 20
-1031.7577399126
 10
1125.9415475442
 20
-1030.0310253498
 10
1127.5573724149
 20
-1028.5226771476
 10
1129.2294349017
 20
-1027.2663893126
 10
1130.9203838916
 20
-1026.290225239
 10
1132.5924463783
 20
-1025.6159908191
 10
1134.208271249
 20
-1025.2587473358
 10
1135.7317636461
 20
-1025.226475018
 10
1137.1288912669
 20
-1025.5198947762
 10
1138.3684445891
 20
-1026.1324520977
 10
1139.4227340398
 20
-1027.0504634642
 10
1140.2682085347
 20
-1028.2534220188
 10
1140.8859815708
 20
-1029.7144556551
 10
1141.2622531193
 20
-1031.400927296
 10
1141.3886178956
 20
-1033.2751639519
  0
LWPOLYLINE
  5
211
330
1F
100
AcDbEntity
  8
0
  6
Continuous
 62
     7
370
    25
100
AcDbPolyline
 90
       43
 70
   128
 43
0.0
 10
1292.05338284
 20
-889.7680323101
 10
1291.9270180637
 20
-891.7881666311
 10
1291.5507465152
 20
-893.9090721547
 10
1290.9329734791
 20
-896.0833713563
 10
1290.0874989841
 20
-898.2624939844
 10
1289.0332095335
 20
-900.3977620406
 10
1287.7936562113
 20
-902.4414771649
 10
1286.3965285905
 20
-904.3479861385
 10
1284.8730361934
 20
-906.0747007013
 10
1283.2572113227
 20
-907.5830489035
 10
1281.5851488359
 20
-908.8393367385
 10
1279.894199846
 20
-909.8155008121
 10
1278.2221373593
 20
-910.489735232
 10
1276.6063124886
 20
-910.8469787153
 10
1275.0828200915
 20
-910.8792510331
 10
1273.6856924707
 20
-910.5858312749
 10
1272.4461391485
 20
-909.9732739534
 10
1271.3918496978
 20
-909.0552625869
 10
1270.5463752029
 20
-907.8523040323
 10
1269.9286021668
 20
-906.391270396
 10
1269.5523306183
 20
-904.7047987551
 10
1269.425965842
 20
-902.8305620992
 10
1269.5523306183
 20
-900.8104277782
 10
1269.9286021668
 20
-898.6895222546
 10
1270.5463752029
 20
-896.515223053
 10
1271.3918496978
 20
-894.3361004249
 10
1272.4461391485
 20
-892.2008323687
 10
1273.6856924707
 20
-890.1571172444
 10
1275.0828200915
 20
-888.2506082708
 10
1276.6063124886
 20
-886.5238937079
 10
1278.2221373593
 20
-885.0155455058
 10
1279.894199846
 20
-883.7592576708
 10
1281.5851488359
 20
-882.7830935972
 10
1283.2572113227
 20
-882.1088591773
 10
1284.8730361934
 20
-881.751615694
 10
1286.3965285905
 20
-881.7193433762
 10
1287.7936562113
 20
-882.0127631344
 10
1289.0332095335
 20
-882.6253204559
 10
1290.0874989841
 20
-883.5433318224
 10
1290.9329734791
 20
-884.746290377
 10
1291.5507465152
 20
-886.2073240133
 10
1291.9270180637
 20
-887.8937956542
 10
1292.05338284
 20
-889.7680323101
  0
LWPOLYLINE
  5
212
330
1F
100
AcDbEntity
  8
0
  6
Continuous
 62
     7
370
    25
100
AcDbPolyline
 90
       43
 70
   128
 43
0.0
 10
1385.1693284826
 20
-688.015318937
 10
1385.0429637063
 20
-690.0354532581
 10
1384.6666921578
 20
-692.1563587817
 10
1384.0489191217
 20
-694.3306579832
 10
1383.2034446268
 20
-696.5097806114
 10
1382.1491551761
 20
-698.6450486676
 10
1380.9096018539
 20
-700.6887637918
 10
1379.5124742331
 20
-702.5952727654
 10
1377.988981836
 20
-704.3219873283
 10
1376.3731569653
 20
-705.8303355305
 10
1374.7010944786
 20
-707.0866233655
 10
1373.0101454887
 20
-708.0627874391
 10
1371.3380830019
 20
-708.737021859
 10
1369.7222581312
 20
-709.0942653423
 10
1368.1987657341
 20
-709.12653766
 10
1366.8016381133
 20
-708.8331179019
 10
1365.5620847911
 20
-708.2205605804
 10
1364.5077953404
 20
-707.3025492139
 10
1363.6623208455
 20
-706.0995906593
 10
1363.0445478094
 20
-704.638557023
 10
1362.6682762609
 20
-702.9520853821
 10
1362.5419114846
 20
-701.0778487262
 10
1362.6682762609
 20
-699.0577144052
 10
1363.0445478094
 20
-696.9368088815
 10
1363.6623208455
 20
-694.76250968
 10
1364.5077953404
 20
-692.5833870518
 10
1365.5620847911
 20
-690.4481189957
 10
1366.8016381133
 20
-688.4044038714
 10
1368.1987657341
 20
-686.4978948978
 10
1369.7222581312
 20
-684.7711803349
 10
1371.3380830019
 20
-683.2628321328
 10
1373.0101454887
 20
-682.0065442978
 10
1374.7010944786
 20
-681.0303802242
 10
1376.3731569653
 20
-680.3561458043
 10
1377.988981836
 20
-679.9989023209
 10
1379.5124742331
 20
-679.9666300032
 10
1380.9096018539
 20
-680.2600497614
 10
1382.1491551761
 20
-680.8726070829
 10
1383.2034446268
 20
-681.7906184494
 10
1384.0489191217
 20
-682.9935770039
 10
1384.6666921578
 20
-684.4546106402
 10
1385.0429637063
 20
-686.1410822812
 10
1385.1693284826
 20
-688.015318937
  0
LWPOLYLINE
  5
213
330
1F
100
AcDbEntity
  8
0
  6
Continuous
 62
     7
370
    25
100
AcDbPolyline
 90
       43
 70
   128
 43
0.0
 10
1348.7608764171
 20
-443.5835533899
 10
1348.6345116408
 20
-445.6036877109
 10
1348.2582400923
 20
-447.7245932345
 10
1347.6404670562
 20
-449.898892436
 10
1346.7949925613
 20
-452.0780150642
 10
1345.7407031106
 20
-454.2132831204
 10
1344.5011497884
 20
-456.2569982447
 10
1343.1040221676
 20
-458.1635072183
 10
1341.5805297705
 20
-459.8902217811
 10
1339.9647048998
 20
-461.3985699833
 10
1338.292642413
 20
-462.6548578183
 10
1336.6016934232
 20
-463.6310218919
 10
1334.9296309364
 20
-464.3052563118
 10
1333.3138060657
 20
-464.6624997951
 10
1331.7903136686
 20
-464.6947721128
 10
1330.3931860478
 20
-464.4013523547
 10
1329.1536327256
 20
-463.7887950332
 10
1328.0993432749
 20
-462.8707836667
 10
1327.25386878
 20
-461.6678251121
 10
1326.6360957439
 20
-460.2067914758
 10
1326.2598241954
 20
-458.5203198349
 10
1326.1334594191
 20
-456.646083179
 10
1326.2598241954
 20
-454.625948858
 10
1326.6360957439
 20
-452.5050433344
 10
1327.25386878
 20
-450.3307441328
 10
1328.0993432749
 20
-448.1516215047
 10
1329.1536327256
 20
-446.0163534485
 10
1330.3931860478
 20
-443.9726383242
 10
1331.7903136686
 20
-442.0661293506
 10
1333.3138060657
 20
-440.3394147877
 10
1334.9296309364
 20
-438.8310665856
 10
1336.6016934232
 20
-437.5747787506
 10
1338.292642413
 20
-436.598614677
 10
1339.9647048998
 20
-435.9243802571
 10
1341.5805297705
 20
-435.5671367737
 10
1343.1040221676
 20
-435.534864456
 10
1344.5011497884
 20
-435.8282842142
 10
1345.7407031106
 20
-436.4408415357
 10
1346.7949925613
 20
-437.3588529022
 10
1347.6404670562
 20
-438.5618114567
 10
1348.2582400923
 20
-440.0228450931
 10
1348.6345116408
 20
-441.709316734
 10
1348.7608764171
 20
-443.5835533899
  0
LWPOLYLINE
  5
214
330
1F
100
AcDbEntity
  8
0
  6
Continuous
 62
     7
370
    25
100
AcDbPolyline
 90
       43
 70
   128
 43
0.0
 10
1220.597772327
 20
-410.043681368
 10
1220.4714075507
 20
-412.063815689
 10
1220.0951360022
 20
-414.1847212127
 10
1219.4773629661
 20
-416.3590204142
 10
1218.6318884712
 20
-418.5381430423
 10
1217.5775990205
 20
-420.6734110985
 10
1216.3380456983
 20
-422.7171262228
 10
1214.9409180775
 20
-424.6236351964
 10
1213.4174256804
 20
-426.3503497593
 10
1211.8016008097
 20
-427.8586979614
 10
1210.129538323
 20
-429.1149857964
 10
1208.4385893331
 20
-430.09114987
 10
1206.7665268463
 20
-430.7653842899
 10
1205.1507019756
 20
-431.1226277733
 10
1203.6272095785
 20
-431.154900091
 10
1202.2300819577
 20
-430.8614803328
 10
1200.9905286355
 20
-430.2489230113
 10
1199.9362391849
 20
-429.3309116448
 10
1199.0907646899
 20
-428.1279530903
 10
1198.4729916538
 20
-426.666919454
 10
1198.0967201053
 20
-424.980447813
 10
1197.970355329
 20
-423.1062111572
 10
1198.0967201053
 20
-421.0860768361
 10
1198.4729916538
 20
-418.9651713125
 10
1199.0907646899
 20
-416.790872111
 10
1199.9362391849
 20
-414.6117494828
 10
1200.9905286355
 20
-412.4764814266
 10
1202.2300819577
 20
-410.4327663023
 10
1203.6272095785
 20
-408.5262573288
 10
1205.1507019756
 20
-406.7995427659
 10
1206.7665268463
 20
-405.2911945637
 10
1208.4385893331
 20
-404.0349067287
 10
1210.129538323
 20
-403.0587426551
 10
1211.8016008097
 20
-402.3845082352
 10
1213.4174256804
 20
-402.0272647519
 10
1214.9409180775
 20
-401.9949924342
 10
1216.3380456983
 20
-402.2884121923
 10
1217.5775990205
 20
-402.9009695138
 10
1218.6318884712
 20
-403.8189808803
 10
1219.4773629661
 20
-405.0219394349
 10
1220.0951360022
 20
-406.4829730712
 10
1220.4714075507
 20
-408.1694447121
 10
1220.597772327
 20
-410.043681368
  0
LWPOLYLINE
  5
215
330
1F
100
AcDbEntity
  8
0
  6
Continuous
 62
     7
370
    25
100
AcDbPolyline
 90
       43
 70
   128
 43
0.0
 10
1141.3886178957
 20
-441.2830753346
 10
1141.2622531194
 20
-443.3032096556
 10
1140.8859815709
 20
-445.4241151792
 10
1140.2682085348
 20
-447.5984143808
 10
1139.4227340398
 20
-449.7775370089
 10
1138.3684445892
 20
-451.9128050651
 10
1137.128891267
 20
-453.9565201894
 10
1135.7317636462
 20
-455.863029163
 10
1134.2082712491
 20
-457.5897437259
 10
1132.5924463784
 20
-459.098091928
 10
1130.9203838916
 20
-460.354379763
 10
1129.2294349017
 20
-461.3305438366
 10
1127.557372415
 20
-462.0047782565
 10
1125.9415475443
 20
-462.3620217399
 10
1124.4180551472
 20
-462.3942940576
 10
1123.0209275263
 20
-462.1008742994
 10
1121.7813742041
 20
-461.4883169779
 10
1120.7270847535
 20
-460.5703056114
 10
1119.8816102586
 20
-459.3673470569
 10
1119.2638372224
 20
-457.9063134205
 10
1118.8875656739
 20
-456.2198417796
 10
1118.7612008977
 20
-454.3456051237
 10
1118.8875656739
 20
-452.3254708027
 10
1119.2638372224
 20
-450.2045652791
 10
1119.8816102586
 20
-448.0302660776
 10
1120.7270847535
 20
-445.8511434494
 10
1121.7813742041
 20
-443.7158753932
 10
1123.0209275263
 20
-441.6721602689
 10
1124.4180551472
 20
-439.7656512953
 10
1125.9415475443
 20
-438.0389367325
 10
1127.557372415
 20
-436.5305885303
 10
1129.2294349017
 20
-435.2743006953
 10
1130.9203838916
 20
-434.2981366217
 10
1132.5924463784
 20
-433.6239022018
 10
1134.2082712491
 20
-433.2666587185
 10
1135.7317636462
 20
-433.2343864008
 10
1137.128891267
 20
-433.5278061589
 10
1138.3684445892
 20
-434.1403634804
 10
1139.4227340398
 20
-435.0583748469
 10
1140.2682085348
 20
-436.2613334015
 10
1140.8859815709
 20
-437.7223670378
 10
1141.2622531194
 20
-439.4088386787
 10
1141.3886178957
 20
-441.2830753346
  0
LWPOLYLINE
  5
216
330
1F
100
AcDbEntity
  8
0
  6
Continuous
 62
     7
370
    25
100
AcDbPolyline
 90
      187
 70
   128
 43
0.0
 10
1349.2780115645
 20
-617.2671272052
 10
1349.1529542065
 20
-625.8884905039
 10
1348.7779248251
 20
-634.6444048229
 10
1348.1533513358
 20
-643.5248795051
 10
1347.2799463881
 20
-652.5197817677
 10
1346.158706553
 20
-661.6188482642
 10
1344.7909111855
 20
-670.8116967945
 10
1343.1781209648
 20
-680.0878381519
 10
1341.322176114
 20
-689.4366880906
 10
1339.2251942997
 20
-698.8475794033
 10
1336.8895682162
 20
-708.3097740923
 10
1334.3179628552
 20
-717.8124756218
 10
1331.5133124652
 20
-727.3448412371
 10
1328.478817203
 20
-736.8959943359
 10
1325.2179394829
 20
-746.4550368794
 10
1321.7344000255
 20
-756.0110618266
 10
1318.0321736124
 20
-765.5531655796
 10
1314.1154845513
 20
-775.0704604251
 10
1309.9888018552
 20
-784.5520869569
 10
1305.6568341442
 20
-793.9872264672
 10
1301.1245242718
 20
-803.3651132906
 10
1296.397043686
 20
-812.6750470881
 10
1291.4797865277
 20
-821.9064050564
 10
1286.3783634767
 20
-831.0486540486
 10
1281.0985953491
 20
-840.0913625928
 10
1275.6465064562
 20
-849.0242127944
 10
1270.0283177303
 20
-857.8370121093
 10
1264.2504396266
 20
-866.5197049736
 10
1258.3194648089
 20
-875.0623842773
 10
1252.2421606271
 20
-883.4553026684
 10
1246.0254613955
 20
-891.6888836746
 10
1239.6764604806
 20
-899.7537326306
 10
1233.2024022077
 20
-907.6406473976
 10
1226.6106735947
 20
-915.3406288628
 10
1219.9087959235
 20
-922.8448912074
 10
1213.1044161582
 20
-930.1448719322
 10
1206.2052982194
 20
-937.2322416267
 10
1199.219314126
 20
-944.0989134734
 10
1192.1544350124
 20
-950.7370524753
 10
1185.018722034
 20
-957.1390843953
 10
1177.8203171686
 20
-963.2977043988
 10
1170.5674339269
 20
-969.2058853888
 10
1163.26834798
 20
-974.8568860235
 10
1155.9313877177
 20
-980.2442584086
 10
1148.5649247445
 20
-985.3618554547
 10
1141.1773643283
 20
-990.2038378905
 10
1133.7771358097
 20
-994.7646809264
 10
1126.3726829836
 20
-999.0391805576
 10
1118.972454465
 20
-1003.0224595026
 10
1111.5848940489
 20
-1006.7099727678
 10
1104.2184310757
 20
-1010.0975128337
 10
1096.8814708133
 20
-1013.1812144556
 10
1089.5823848665
 20
-1015.957559074
 10
1082.3295016247
 20
-1018.4233788293
 10
1075.1310967593
 20
-1020.5758601766
 10
1067.9953837809
 20
-1022.4125470954
 10
1060.9305046673
 20
-1023.9313438928
 10
1053.9445205739
 20
-1025.130517594
 10
1047.0454026352
 20
-1026.0086999201
 10
1040.2410228698
 20
-1026.5648888491
 10
1033.5391451987
 20
-1026.7984497593
 10
1026.9474165857
 20
-1026.7091161536
 10
1020.4733583128
 20
-1026.2969899632
 10
1014.1243573979
 20
-1025.5625414314
 10
1007.9076581662
 20
-1024.5066085776
 10
1001.8303539844
 20
-1023.1303962401
 10
995.8993791667
 20
-1021.4354747022
 10
990.1215010631
 20
-1019.4237779002
 10
984.5033123372
 20
-1017.0976012166
 10
979.0512234443
 20
-1014.4595988612
 10
973.7714553167
 20
-1011.5127808425
 10
968.6700322656
 20
-1008.2605095333
 10
963.7527751074
 20
-1004.7064958342
 10
959.0252945215
 20
-1000.8547949394
 10
954.4929846492
 20
-996.7098017093
 10
950.1610169381
 20
-992.2762456565
 10
946.0343342421
 20
-987.5591855489
 10
942.1176451809
 20
-982.5640036376
 10
938.4154187678
 20
-977.2963995158
 10
934.9318793104
 20
-971.7623836153
 10
931.6710015903
 20
-965.9682703486
 10
928.6365063282
 20
-959.9206709042
 10
925.8318559381
 20
-953.6264857027
 10
923.2602505772
 20
-947.0928965236
 10
920.9246244937
 20
-940.3273583106
 10
918.8276426793
 20
-933.3375906657
 10
916.9716978285
 20
-926.1315690404
 10
915.3589076078
 20
-918.7175156362
 10
913.9911122403
 20
-911.1038900225
 10
912.8698724052
 20
-903.2993794842
 10
911.9964674576
 20
-895.3128891095
 10
911.3718939682
 20
-887.1535316287
 10
910.9968645869
 20
-878.8306170168
 10
910.8718072288
 20
-870.3536418703
 10
910.9968645869
 20
-861.7322785715
 10
911.3718939682
 20
-852.9763642526
 10
911.9964674576
 20
-844.0958895704
 10
912.8698724052
 20
-835.1009873078
 10
913.9911122403
 20
-826.0019208113
 10
915.3589076078
 20
-816.8090722809
 10
916.9716978285
 20
-807.5329309236
 10
918.8276426793
 20
-798.1840809849
 10
920.9246244937
 20
-788.7731896722
 10
923.2602505772
 20
-779.3109949832
 10
925.8318559381
 20
-769.8082934537
 10
928.6365063282
 20
-760.2759278384
 10
931.6710015903
 20
-750.7247747396
 10
934.9318793104
 20
-741.1657321961
 10
938.4154187678
 20
-731.6097072489
 10
942.1176451809
 20
-722.0676034959
 10
946.0343342421
 20
-712.5503086504
 10
950.1610169381
 20
-703.0686821186
 10
954.4929846492
 20
-693.6335426083
 10
959.0252945215
 20
-684.2556557849
 10
963.7527751074
 20
-674.9457219874
 10
968.6700322656
 20
-665.714364019
 10
973.7714553167
 20
-656.5721150268
 10
979.0512234443
 20
-647.5294064827
 10
984.5033123372
 20
-638.5965562811
 10
990.1215010631
 20
-629.7837569662
 10
995.8993791667
 20
-621.1010641019
 10
1001.8303539844
 20
-612.5583847982
 10
1007.9076581662
 20
-604.1654664071
 10
1014.1243573979
 20
-595.9318854009
 10
1020.4733583128
 20
-587.8670364449
 10
1026.9474165857
 20
-579.9801216778
 10
1033.5391451987
 20
-572.2801402127
 10
1040.2410228698
 20
-564.7758778681
 10
1047.0454026352
 20
-557.4758971433
 10
1053.9445205739
 20
-550.3885274488
 10
1060.9305046673
 20
-543.5218556021
 10
1067.9953837809
 20
-536.8837166002
 10
1075.1310967593
 20
-530.4816846802
 10
1082.3295016247
 20
-524.3230646767
 10
1089.5823848665
 20
-518.4148836867
 10
1096.8814708133
 20
-512.763883052
 10
1104.2184310757
 20
-507.3765106668
 10
1111.5848940489
 20
-502.2589136208
 10
1118.972454465
 20
-497.4169311849
 10
1126.3726829836
 20
-492.8560881491
 10
1133.7771358097
 20
-488.5815885179
 10
1141.1773643283
 20
-484.5983095729
 10
1148.5649247445
 20
-480.9107963077
 10
1155.9313877177
 20
-477.5232562418
 10
1163.2683479801
 20
-474.4395546199
 10
1170.5674339269
 20
-471.6632100015
 10
1177.8203171686
 20
-469.1973902461
 10
1185.018722034
 20
-467.0449088989
 10
1192.1544350124
 20
-465.20822198
 10
1199.219314126
 20
-463.6894251827
 10
1206.2052982194
 20
-462.4902514815
 10
1213.1044161582
 20
-461.6120691554
 10
1219.9087959235
 20
-461.0558802264
 10
1226.6106735947
 20
-460.8223193162
 10
1233.2024022077
 20
-460.9116529219
 10
1239.6764604806
 20
-461.3237791123
 10
1246.0254613955
 20
-462.058227644
 10
1252.2421606271
 20
-463.1141604979
 10
1258.3194648089
 20
-464.4903728354
 10
1264.2504396266
 20
-466.1852943733
 10
1270.0283177303
 20
-468.1969911753
 10
1275.6465064562
 20
-470.5231678589
 10
1281.0985953491
 20
-473.1611702143
 10
1286.3783634767
 20
-476.107988233
 10
1291.4797865277
 20
-479.3602595422
 10
1296.397043686
 20
-482.9142732413
 10
1301.1245242718
 20
-486.7659741361
 10
1305.6568341442
 20
-490.9109673662
 10
1309.9888018552
 20
-495.3445234189
 10
1314.1154845513
 20
-500.0615835266
 10
1318.0321736124
 20
-505.0567654379
 10
1321.7344000255
 20
-510.3243695597
 10
1325.2179394829
 20
-515.8583854602
 10
1328.478817203
 20
-521.6524987269
 10
1331.5133124652
 20
-527.7000981713
 10
1334.3179628552
 20
-533.9942833728
 10
1336.8895682162
 20
-540.5278725519
 10
1339.2251942997
 20
-547.2934107649
 10
1341.322176114
 20
-554.2831784098
 10
1343.1781209648
 20
-561.4892000351
 10
1344.7909111855
 20
-568.9032534393
 10
1346.158706553
 20
-576.516879053
 10
1347.2799463881
 20
-584.3213895913
 10
1348.1533513358
 20
-592.307879966
 10
1348.7779248251
 20
-600.4672374468
 10
1349.1529542065
 20
-608.7901520587
 10
1349.2780115645
 20
-617.2671272052
  0
LWPOLYLINE
  5
217
330
1F
100
AcDbEntity
  8
0
  6
Continuous
 62
     7
370
    25
100
AcDbPolyline
 90
       43
 70
   128
 43
0.0
 10
1385.1693284826
 20
-505.0797030188
 10
1385.0429637063
 20
-507.0998373398
 10
1384.6666921578
 20
-509.2207428634
 10
1384.0489191217
 20
-511.395042065
 10
1383.2034446268
 20
-513.5741646931
 10
1382.1491551761
 20
-515.7094327493
 10
1380.9096018539
 20
-517.7531478736
 10
1379.5124742331
 20
-519.6596568472
 10
1377.988981836
 20
-521.3863714101
 10
1376.3731569653
 20
-522.8947196122
 10
1374.7010944786
 20
-524.1510074472
 10
1373.0101454887
 20
-525.1271715208
 10
1371.3380830019
 20
-525.8014059407
 10
1369.7222581312
 20
-526.158649424
 10
1368.1987657341
 20
-526.1909217418
 10
1366.8016381133
 20
-525.8975019836
 10
1365.5620847911
 20
-525.2849446621
 10
1364.5077953405
 20
-524.3669332956
 10
1363.6623208455
 20
-523.163974741
 10
1363.0445478094
 20
-521.7029411047
 10
1362.6682762609
 20
-520.0164694638
 10
1362.5419114846
 20
-518.1422328079
 10
1362.6682762609
 20
-516.1220984869
 10
1363.0445478094
 20
-514.0011929633
 10
1363.6623208455
 20
-511.8268937617
 10
1364.5077953405
 20
-509.6477711336
 10
1365.5620847911
 20
-507.5125030774
 10
1366.8016381133
 20
-505.4687879531
 10
1368.1987657341
 20
-503.5622789795
 10
1369.7222581312
 20
-501.8355644167
 10
1371.3380830019
 20
-500.3272162145
 10
1373.0101454887
 20
-499.0709283795
 10
1374.7010944786
 20
-498.0947643059
 10
1376.3731569653
 20
-497.420529886
 10
1377.988981836
 20
-497.0632864027
 10
1379.5124742331
 20
-497.0310140849
 10
1380.9096018539
 20
-497.3244338431
 10
1382.1491551761
 20
-497.9369911646
 10
1383.2034446268
 20
-498.8550025311
 10
1384.0489191217
 20
-500.0579610857
 10
1384.6666921578
 20
-501.518994722
 10
1385.0429637063
 20
-503.2054663629
 10
1385.1693284826
 20
-505.0797030188
  0
LWPOLYLINE
  5
218
330
1F
100
AcDbEntity
  8
0
  6
Continuous
 62
     7
370
    25
100
AcDbPolyline
 90
       43
 70
   128
 43
0.0
 10
1292.05338284
 20
-410.8363720832
 10
1291.9270180637
 20
-412.8565064042
 10
1291.5507465152
 20
-414.9774119278
 10
1290.9329734791
 20
-417.1517111293
 10
1290.0874989842
 20
-419.3308337575
 10
1289.0332095335
 20
-421.4661018137
 10
1287.7936562113
 20
-423.509816938
 10
1286.3965285905
 20
-425.4163259116
 10
1284.8730361934
 20
-427.1430404744
 10
1283.2572113227
 20
-428.6513886766
 10
1281.585148836
 20
-429.9076765116
 10
1279.8941998461
 20
-430.8838405852
 10
1278.2221373593
 20
-431.5580750051
 10
1276.6063124886
 20
-431.9153184884
 10
1275.0828200915
 20
-431.9475908061
 10
1273.6856924707
 20
-431.654171048
 10
1272.4461391485
 20
-431.0416137265
 10
1271.3918496978
 20
-430.12360236
 10
1270.5463752029
 20
-428.9206438054
 10
1269.9286021668
 20
-427.4596101691
 10
1269.5523306183
 20
-425.7731385282
 10
1269.425965842
 20
-423.8989018723
 10
1269.5523306183
 20
-421.8787675513
 10
1269.9286021668
 20
-419.7578620276
 10
1270.5463752029
 20
-417.5835628261
 10
1271.3918496978
 20
-415.404440198
 10
1272.4461391485
 20
-413.2691721418
 10
1273.6856924707
 20
-411.2254570175
 10
1275.0828200915
 20
-409.3189480439
 10
1276.6063124886
 20
-407.592233481
 10
1278.2221373593
 20
-406.0838852789
 10
1279.8941998461
 20
-404.8275974439
 10
1281.585148836
 20
-403.8514333703
 10
1283.2572113227
 20
-403.1771989504
 10
1284.8730361934
 20
-402.819955467
 10
1286.3965285905
 20
-402.7876831493
 10
1287.7936562113
 20
-403.0811029075
 10
1289.0332095335
 20
-403.693660229
 10
1290.0874989842
 20
-404.6116715955
 10
1290.9329734791
 20
-405.81463015
 10
1291.5507465152
 20
-407.2756637864
 10
1291.9270180637
 20
-408.9621354273
 10
1292.05338284
 20
-410.8363720832
  0
LWPOLYLINE
  5
219
330
1F
100
AcDbEntity
  8
0
  6
Continuous
 62
     7
370
    25
100
AcDbPolyline
 90
       43
 70
   128
 43
0.0
 10
1397.7148260758
 20
-589.3051493754
 10
1397.5884612995
 20
-591.3252836964
 10
1397.212189751
 20
-593.44618922
 10
1396.5944167149
 20
-595.6204884215
 10
1395.74894222
 20
-597.7996110497
 10
1394.6946527693
 20
-599.9348791059
 10
1393.4550994471
 20
-601.9785942302
 10
1392.0579718263
 20
-603.8851032038
 10
1390.5344794292
 20
-605.6118177666
 10
1388.9186545585
 20
-607.1201659688
 10
1387.2465920717
 20
-608.3764538038
 10
1385.5556430819
 20
-609.3526178774
 10
1383.8835805951
 20
-610.0268522973
 10
1382.2677557244
 20
-610.3840957806
 10
1380.7442633273
 20
-610.4163680984
 10
1379.3471357065
 20
-610.1229483402
 10
1378.1075823843
 20
-609.5103910187
 10
1377.0532929336
 20
-608.5923796522
 10
1376.2078184387
 20
-607.3894210976
 10
1375.5900454026
 20
-605.9283874613
 10
1375.2137738541
 20
-604.2419158204
 10
1375.0874090778
 20
-602.3676791645
 10
1375.2137738541
 20
-600.3475448435
 10
1375.5900454026
 20
-598.2266393199
 10
1376.2078184387
 20
-596.0523401183
 10
1377.0532929336
 20
-593.8732174902
 10
1378.1075823843
 20
-591.737949434
 10
1379.3471357065
 20
-589.6942343097
 10
1380.7442633273
 20
-587.7877253361
 10
1382.2677557244
 20
-586.0610107732
 10
1383.8835805951
 20
-584.5526625711
 10
1385.5556430819
 20
-583.2963747361
 10
1387.2465920717
 20
-582.3202106625
 10
1388.9186545585
 20
-581.6459762426
 10
1390.5344794292
 20
-581.2887327593
 10
1392.0579718263
 20
-581.2564604415
 10
1393.4550994471
 20
-581.5498801997
 10
1394.6946527693
 20
-582.1624375212
 10
1395.74894222
 20
-583.0804488877
 10
1396.5944167149
 20
-584.2834074423
 10
1397.212189751
 20
-585.7444410786
 10
1397.5884612995
 20
-587.4309127195
 10
1397.7148260758
 20
-589.3051493754
  0
LWPOLYLINE
  5
21A
330
1F
100
AcDbEntity
  8
0
  6
Continuous
 62
     7
370
    25
100
AcDbPolyline
 90
       43
 70
   128
 43
0.0
 10
1348.7608764171
 20
-791.5477725529
 10
1348.6345116408
 20
-793.567906874
 10
1348.2582400923
 20
-795.6888123976
 10
1347.6404670562
 20
-797.8631115991
 10
1346.7949925612
 20
-800.0422342273
 10
1345.7407031106
 20
-802.1775022835
 10
1344.5011497884
 20
-804.2212174077
 10
1343.1040221676
 20
-806.1277263813
 10
1341.5805297705
 20
-807.8544409442
 10
1339.9647048998
 20
-809.3627891463
 10
1338.292642413
 20
-810.6190769813
 10
1336.6016934231
 20
-811.595241055
 10
1334.9296309364
 20
-812.2694754749
 10
1333.3138060657
 20
-812.6267189582
 10
1331.7903136686
 20
-812.6589912759
 10
1330.3931860478
 20
-812.3655715177
 10
1329.1536327256
 20
-811.7530141962
 10
1328.0993432749
 20
-810.8350028297
 10
1327.25386878
 20
-809.6320442752
 10
1326.6360957439
 20
-808.1710106389
 10
1326.2598241954
 20
-806.484538998
 10
1326.1334594191
 20
-804.6103023421
 10
1326.2598241954
 20
-802.590168021
 10
1326.6360957439
 20
-800.4692624974
 10
1327.25386878
 20
-798.2949632959
 10
1328.0993432749
 20
-796.1158406677
 10
1329.1536327256
 20
-793.9805726115
 10
1330.3931860478
 20
-791.9368574873
 10
1331.7903136686
 20
-790.0303485137
 10
1333.3138060657
 20
-788.3036339508
 10
1334.9296309364
 20
-786.7952857487
 10
1336.6016934231
 20
-785.5389979137
 10
1338.292642413
 20
-784.56283384
 10
1339.9647048998
 20
-783.8885994202
 10
1341.5805297705
 20
-783.5313559368
 10
1343.1040221676
 20
-783.4990836191
 10
1344.5011497884
 20
-783.7925033773
 10
1345.7407031106
 20
-784.4050606988
 10
1346.7949925612
 20
-785.3230720653
 10
1347.6404670562
 20
-786.5260306198
 10
1348.2582400923
 20
-787.9870642561
 10
1348.6345116408
 20
-789.673535897
 10
1348.7608764171
 20
-791.5477725529
  0
LWPOLYLINE
  5
21B
330
1F
100
AcDbEntity
  8
0
  6
Continuous
 62
     7
370
    25
100
AcDbPolyline
 90
       43
 70
   128
 43
0.0
 10
1220.597772327
 20
-973.0616148427
 10
1220.4714075507
 20
-975.0817491637
 10
1220.0951360022
 20
-977.2026546873
 10
1219.4773629661
 20
-979.3769538888
 10
1218.6318884712
 20
-981.556076517
 10
1217.5775990205
 20
-983.6913445732
 10
1216.3380456983
 20
-985.7350596975
 10
1214.9409180775
 20
-987.6415686711
 10
1213.4174256804
 20
-989.3682832339
 10
1211.8016008097
 20
-990.8766314361
 10
1210.1295383229
 20
-992.1329192711
 10
1208.438589333
 20
-993.1090833447
 10
1206.7665268463
 20
-993.7833177646
 10
1205.1507019756
 20
-994.1405612479
 10
1203.6272095785
 20
-994.1728335656
 10
1202.2300819577
 20
-993.8794138075
 10
1200.9905286355
 20
-993.266856486
 10
1199.9362391848
 20
-992.3488451195
 10
1199.0907646899
 20
-991.1458865649
 10
1198.4729916538
 20
-989.6848529286
 10
1198.0967201053
 20
-987.9983812877
 10
1197.970355329
 20
-986.1241446318
 10
1198.0967201053
 20
-984.1040103108
 10
1198.4729916538
 20
-981.9831047871
 10
1199.0907646899
 20
-979.8088055856
 10
1199.9362391848
 20
-977.6296829575
 10
1200.9905286355
 20
-975.4944149013
 10
1202.2300819577
 20
-973.450699777
 10
1203.6272095785
 20
-971.5441908034
 10
1205.1507019756
 20
-969.8174762405
 10
1206.7665268463
 20
-968.3091280384
 10
1208.438589333
 20
-967.0528402034
 10
1210.1295383229
 20
-966.0766761298
 10
1211.8016008097
 20
-965.4024417099
 10
1213.4174256804
 20
-965.0451982265
 10
1214.9409180775
 20
-965.0129259088
 10
1216.3380456983
 20
-965.306345667
 10
1217.5775990205
 20
-965.9189029885
 10
1218.6318884712
 20
-966.836914355
 10
1219.4773629661
 20
-968.0398729095
 10
1220.0951360022
 20
-969.5009065458
 10
1220.4714075507
 20
-971.1873781868
 10
1220.597772327
 20
-973.0616148427
  0
LWPOLYLINE
  5
21C
330
1F
100
AcDbEntity
  8
0
  6
Continuous
 62
     7
370
    25
100
AcDbPolyline
 90
       43
 70
   128
 43
0.0
 10
1062.1794634642
 20
-1064.5145579185
 10
1062.053098688
 20
-1066.5346922395
 10
1061.6768271395
 20
-1068.6555977631
 10
1061.0590541034
 20
-1070.8298969646
 10
1060.2135796084
 20
-1073.0090195928
 10
1059.1592901578
 20
-1075.144287649
 10
1057.9197368356
 20
-1077.1880027733
 10
1056.5226092148
 20
-1079.0945117469
 10
1054.9991168177
 20
-1080.8212263097
 10
1053.383291947
 20
-1082.3295745119
 10
1051.7112294602
 20
-1083.5858623469
 10
1050.0202804703
 20
-1084.5620264205
 10
1048.3482179836
 20
-1085.2362608404
 10
1046.7323931129
 20
-1085.5935043237
 10
1045.2089007158
 20
-1085.6257766414
 10
1043.8117730949
 20
-1085.3323568833
 10
1042.5722197727
 20
-1084.7197995618
 10
1041.5179303221
 20
-1083.8017881953
 10
1040.6724558272
 20
-1082.5988296407
 10
1040.054682791
 20
-1081.1377960044
 10
1039.6784112425
 20
-1079.4513243635
 10
1039.5520464663
 20
-1077.5770877076
 10
1039.6784112425
 20
-1075.5569533866
 10
1040.054682791
 20
-1073.436047863
 10
1040.6724558272
 20
-1071.2617486614
 10
1041.5179303221
 20
-1069.0826260333
 10
1042.5722197727
 20
-1066.9473579771
 10
1043.8117730949
 20
-1064.9036428528
 10
1045.2089007158
 20
-1062.9971338792
 10
1046.7323931129
 20
-1061.2704193163
 10
1048.3482179836
 20
-1059.7620711142
 10
1050.0202804703
 20
-1058.5057832792
 10
1051.7112294602
 20
-1057.5296192056
 10
1053.383291947
 20
-1056.8553847857
 10
1054.9991168177
 20
-1056.4981413023
 10
1056.5226092148
 20
-1056.4658689846
 10
1057.9197368356
 20
-1056.7592887428
 10
1059.1592901578
 20
-1057.3718460643
 10
1060.2135796084
 20
-1058.2898574308
 10
1061.0590541034
 20
-1059.4928159853
 10
1061.6768271395
 20
-1060.9538496217
 10
1062.053098688
 20
-1062.6403212626
 10
1062.1794634642
 20
-1064.5145579185
  0
LWPOLYLINE
  5
21D
330
1F
100
AcDbEntity
  8
0
  6
Continuous
 62
     7
370
    25
100
AcDbPolyline
 90
       43
 70
   128
 43
0.0
 10
934.0163593742
 20
-1030.9746858966
 10
933.8899945979
 20
-1032.9948202176
 10
933.5137230494
 20
-1035.1157257413
 10
932.8959500133
 20
-1037.2900249428
 10
932.0504755184
 20
-1039.4691475709
 10
930.9961860677
 20
-1041.6044156271
 10
929.7566327455
 20
-1043.6481307514
 10
928.3595051247
 20
-1045.554639725
 10
926.8360127276
 20
-1047.2813542879
 10
925.2201878569
 20
-1048.78970249
 10
923.5481253701
 20
-1050.045990325
 10
921.8571763802
 20
-1051.0221543986
 10
920.1851138935
 20
-1051.6963888185
 10
918.5692890228
 20
-1052.0536323019
 10
917.0457966257
 20
-1052.0859046196
 10
915.6486690049
 20
-1051.7924848614
 10
914.4091156827
 20
-1051.1799275399
 10
913.354826232
 20
-1050.2619161734
 10
912.5093517371
 20
-1049.0589576189
 10
911.891578701
 20
-1047.5979239826
 10
911.5153071525
 20
-1045.9114523416
 10
911.3889423762
 20
-1044.0372156858
 10
911.5153071525
 20
-1042.0170813647
 10
911.891578701
 20
-1039.8961758411
 10
912.5093517371
 20
-1037.7218766396
 10
913.354826232
 20
-1035.5427540114
 10
914.4091156827
 20
-1033.4074859552
 10
915.6486690049
 20
-1031.3637708309
 10
917.0457966257
 20
-1029.4572618574
 10
918.5692890228
 20
-1027.7305472945
 10
920.1851138935
 20
-1026.2221990923
 10
921.8571763802
 20
-1024.9659112573
 10
923.5481253701
 20
-1023.9897471837
 10
925.2201878569
 20
-1023.3155127638
 10
926.8360127276
 20
-1022.9582692805
 10
928.3595051247
 20
-1022.9259969628
 10
929.7566327455
 20
-1023.2194167209
 10
930.9961860677
 20
-1023.8319740424
 10
932.0504755184
 20
-1024.7499854089
 10
932.8959500133
 20
-1025.9529439635
 10
933.5137230494
 20
-1027.4139775998
 10
933.8899945979
 20
-1029.1004492407
 10
934.0163593742
 20
-1030.9746858966
  0
LWPOLYLINE
  5
21E
330
1F
100
AcDbEntity
  8
0
  6
Continuous
 62
     7
370
    25
100
AcDbPolyline
 90
       43
 70
   128
 43
0.0
 10
885.0624097155
 20
-885.2530899111
 10
884.9360449392
 20
-887.2732242321
 10
884.5597733907
 20
-889.3941297558
 10
883.9420003546
 20
-891.5684289573
 10
883.0965258596
 20
-893.7475515854
 10
882.042236409
 20
-895.8828196416
 10
880.8026830868
 20
-897.9265347659
 10
879.405555466
 20
-899.8330437395
 10
877.8820630689
 20
-901.5597583024
 10
876.2662381982
 20
-903.0681065045
 10
874.5941757114
 20
-904.3243943395
 10
872.9032267215
 20
-905.3005584131
 10
871.2311642348
 20
-905.974792833
 10
869.6153393641
 20
-906.3320363164
 10
868.091846967
 20
-906.3643086341
 10
866.6947193462
 20
-906.0708888759
 10
865.455166024
 20
-905.4583315544
 10
864.4008765733
 20
-904.5403201879
 10
863.5554020784
 20
-903.3373616334
 10
862.9376290423
 20
-901.8763279971
 10
862.5613574938
 20
-900.1898563561
 10
862.4349927175
 20
-898.3156197003
 10
862.5613574938
 20
-896.2954853792
 10
862.9376290423
 20
-894.1745798556
 10
863.5554020784
 20
-892.0002806541
 10
864.4008765733
 20
-889.8211580259
 10
865.455166024
 20
-887.6858899697
 10
866.6947193462
 20
-885.6421748454
 10
868.091846967
 20
-883.7356658718
 10
869.6153393641
 20
-882.008951309
 10
871.2311642348
 20
-880.5006031068
 10
872.9032267215
 20
-879.2443152718
 10
874.5941757114
 20
-878.2681511982
 10
876.2662381982
 20
-877.5939167783
 10
877.8820630689
 20
-877.236673295
 10
879.405555466
 20
-877.2044009773
 10
880.8026830868
 20
-877.4978207354
 10
882.042236409
 20
-878.1103780569
 10
883.0965258596
 20
-879.0283894234
 10
883.9420003546
 20
-880.231347978
 10
884.5597733907
 20
-881.6923816143
 10
884.9360449392
 20
-883.3788532552
 10
885.0624097155
 20
-885.2530899111
  0
LWPOLYLINE
  5
21F
330
1F
100
AcDbEntity
  8
0
  6
Continuous
 62
     7
370
    25
100
AcDbPolyline
 90
       43
 70
   128
 43
0.0
 10
934.0163593742
 20
-683.0104667335
 10
933.8899945979
 20
-685.0306010546
 10
933.5137230494
 20
-687.1515065782
 10
932.8959500133
 20
-689.3258057797
 10
932.0504755184
 20
-691.5049284079
 10
930.9961860677
 20
-693.6401964641
 10
929.7566327455
 20
-695.6839115883
 10
928.3595051247
 20
-697.5904205619
 10
926.8360127276
 20
-699.3171351248
 10
925.2201878569
 20
-700.8254833269
 10
923.5481253702
 20
-702.081771162
 10
921.8571763803
 20
-703.0579352356
 10
920.1851138935
 20
-703.7321696555
 10
918.5692890228
 20
-704.0894131388
 10
917.0457966257
 20
-704.1216854565
 10
915.6486690049
 20
-703.8282656984
 10
914.4091156827
 20
-703.2157083769
 10
913.354826232
 20
-702.2976970103
 10
912.5093517371
 20
-701.0947384558
 10
911.891578701
 20
-699.6337048195
 10
911.5153071525
 20
-697.9472331786
 10
911.3889423762
 20
-696.0729965227
 10
911.5153071525
 20
-694.0528622017
 10
911.891578701
 20
-691.931956678
 10
912.5093517371
 20
-689.7576574765
 10
913.354826232
 20
-687.5785348483
 10
914.4091156827
 20
-685.4432667921
 10
915.6486690049
 20
-683.3995516679
 10
917.0457966257
 20
-681.4930426943
 10
918.5692890228
 20
-679.7663281314
 10
920.1851138935
 20
-678.2579799293
 10
921.8571763803
 20
-677.0016920943
 10
923.5481253702
 20
-676.0255280206
 10
925.2201878569
 20
-675.3512936008
 10
926.8360127276
 20
-674.9940501174
 10
928.3595051247
 20
-674.9617777997
 10
929.7566327455
 20
-675.2551975579
 10
930.9961860677
 20
-675.8677548794
 10
932.0504755184
 20
-676.7857662459
 10
932.8959500133
 20
-677.9887248004
 10
933.5137230494
 20
-679.4497584367
 10
933.8899945979
 20
-681.1362300776
 10
934.0163593742
 20
-683.0104667335
  0
LWPOLYLINE
  5
220
330
1F
100
AcDbEntity
  8
0
  6
Continuous
 62
     7
370
    25
100
AcDbPolyline
 90
       43
 70
   128
 43
0.0
 10
1062.1794634643
 20
-501.4966244438
 10
1062.053098688
 20
-503.5167587648
 10
1061.6768271395
 20
-505.6376642885
 10
1061.0590541034
 20
-507.81196349
 10
1060.2135796085
 20
-509.9910861182
 10
1059.1592901578
 20
-512.1263541743
 10
1057.9197368356
 20
-514.1700692986
 10
1056.5226092148
 20
-516.0765782722
 10
1054.9991168177
 20
-517.8032928351
 10
1053.383291947
 20
-519.3116410372
 10
1051.7112294602
 20
-520.5679288722
 10
1050.0202804704
 20
-521.5440929458
 10
1048.3482179836
 20
-522.2183273657
 10
1046.7323931129
 20
-522.5755708491
 10
1045.2089007158
 20
-522.6078431668
 10
1043.811773095
 20
-522.3144234086
 10
1042.5722197728
 20
-521.7018660871
 10
1041.5179303221
 20
-520.7838547206
 10
1040.6724558272
 20
-519.5808961661
 10
1040.0546827911
 20
-518.1198625298
 10
1039.6784112426
 20
-516.4333908888
 10
1039.5520464663
 20
-514.559154233
 10
1039.6784112426
 20
-512.5390199119
 10
1040.0546827911
 20
-510.4181143883
 10
1040.6724558272
 20
-508.2438151868
 10
1041.5179303221
 20
-506.0646925586
 10
1042.5722197728
 20
-503.9294245024
 10
1043.811773095
 20
-501.8857093782
 10
1045.2089007158
 20
-499.9792004046
 10
1046.7323931129
 20
-498.2524858417
 10
1048.3482179836
 20
-496.7441376396
 10
1050.0202804704
 20
-495.4878498045
 10
1051.7112294602
 20
-494.5116857309
 10
1053.383291947
 20
-493.837451311
 10
1054.9991168177
 20
-493.4802078277
 10
1056.5226092148
 20
-493.44793551
 10
1057.9197368356
 20
-493.7413552681
 10
1059.1592901578
 20
-494.3539125896
 10
1060.2135796085
 20
-495.2719239561
 10
1061.0590541034
 20
-496.4748825107
 10
1061.6768271395
 20
-497.935916147
 10
1062.053098688
 20
-499.6223877879
 10
1062.1794634643
 20
-501.4966244438
  0
ARC
  5
221
330
1F
100
AcDbEntity
  8
0
  6
Continuous
 62
     7
370
    25
100
AcDbCircle
 10
1231.9173788447
 20
-569.1039915239
 30
0.0
 40
106.7228599811555
100
AcDbArc
 50
35.0279430573
 51
83.2202456751
  0
ARC
  5
222
330
1F
100
AcDbEntity
  8
0
  6
Continuous
 62
     7
370
    25
100
AcDbCircle
 10
1029.7325697603
 20
-919.3207385311
 30
0.0
 40
106.7727810090359
100
AcDbArc
 50
216.5488523985
 51
264.8649252412
  0
ARC
  5
223
330
1F
100
AcDbEntity
  8
0
  6
Continuous
 62
     7
370
    25
100
AcDbCircle
 10
1067.7854542076
 20
-935.1799825064
 30
0.0
 40
112.2952900119918
100
AcDbArc
 50
218.1921064995
 51
229.0585596982
  0
ARC
  5
224
330
1F
100
AcDbEntity
  8
0
  6
Continuous
 62
     7
370
    25
100
AcDbCircle
 10
1264.3630197763
 20
-595.1289271113
 30
0.0
 40
113.2956431301845
100
AcDbArc
 50
70.9695578481
 51
84.5565747937
  0
LWPOLYLINE
  5
225
330
1F
100
AcDbEntity
  8
0
  6
Continuous
 62
     7
370
    25
100
AcDbPolyline
 90
        3
 70
   128
 43
0.0
 10
1346.0897149539
 20
-785.7793687037
 10
1345.7965602717
 20
-785.5822048924
 10
1345.653665194
 20
-785.4965085677
  0
LINE
  5
226
330
1F
100
AcDbEntity
  8
0
  6
Continuous
 62
     7
370
    25
100
AcDbLine
 10
1330.6548842045
 20
-811.4779744391
 30
0.0
 11
1330.8859092545
 21
-811.6033685636
 31
0.0
  0
LWPOLYLINE
  5
227
330
1F
100
AcDbEntity
  8
0
  6
Continuous
 62
     7
370
    25
100
AcDbPolyline
 90
        3
 70
   128
 43
0.0
 10
1289.3822213768
 20
-883.9996284609
 10
1289.0890666946
 20
-883.8024646496
 10
1288.9461716169
 20
-883.7167683248
  0
LINE
  5
228
330
1F
100
AcDbEntity
  8
0
  6
Continuous
 62
     7
370
    25
100
AcDbLine
 10
1273.9473906274
 20
-909.6982341963
 30
0.0
 11
1274.1784156774
 21
-909.8236283208
 31
0.0
  0
LWPOLYLINE
  5
229
330
1F
100
AcDbEntity
  8
0
  6
Continuous
 62
     7
370
    25
100
AcDbPolyline
 90
        3
 70
   128
 43
0.0
 10
1382.4981670195
 20
-682.2469150878
 10
1382.2050123372
 20
-682.0497512766
 10
1382.0621172596
 20
-681.9640549518
  0
LINE
  5
22A
330
1F
100
AcDbEntity
  8
0
  6
Continuous
 62
     7
370
    25
100
AcDbLine
 10
1367.06333627
 20
-707.9455208232
 30
0.0
 11
1367.2943613201
 21
-708.0709149478
 31
0.0
  0
LWPOLYLINE
  5
22B
330
1F
100
AcDbEntity
  8
0
  6
Continuous
 62
     7
370
    25
100
AcDbPolyline
 90
        3
 70
   128
 43
0.0
 10
1217.9266108638
 20
-967.2932109934
 10
1217.6334561816
 20
-967.0960471822
 10
1217.4905611039
 20
-967.0103508574
  0
LINE
  5
22C
330
1F
100
AcDbEntity
  8
0
  6
Continuous
 62
     7
370
    25
100
AcDbLine
 10
1202.4917801144
 20
-992.9918167289
 30
0.0
 11
1202.7228051644
 21
-993.1172108534
 31
0.0
  0
LWPOLYLINE
  5
22D
330
1F
100
AcDbEntity
  8
0
  6
Continuous
 62
     7
370
    25
100
AcDbPolyline
 90
        3
 70
   128
 43
0.0
 10
1395.0436646127
 20
-583.5367455262
 10
1394.7505099304
 20
-583.3395817149
 10
1394.6076148528
 20
-583.2538853901
  0
LINE
  5
22E
330
1F
100
AcDbEntity
  8
0
  6
Continuous
 62
     7
370
    25
100
AcDbLine
 10
1379.6088338632
 20
-609.2353512616
 30
0.0
 11
1379.8398589133
 21
-609.3607453861
 31
0.0
  0
LWPOLYLINE
  5
22F
330
1F
100
AcDbEntity
  8
0
  6
Continuous
 62
     7
370
    25
100
AcDbPolyline
 90
        3
 70
   128
 43
0.0
 10
1138.7174564325
 20
-1027.5067601027
 10
1138.4243017502
 20
-1027.3095962914
 10
1138.2814066726
 20
-1027.2238999667
  0
LINE
  5
230
330
1F
100
AcDbEntity
  8
0
  6
Continuous
 62
     7
370
    25
100
AcDbLine
 10
1123.282625683
 20
-1053.2053658381
 30
0.0
 11
1123.5136507331
 21
-1053.3307599626
 31
0.0
  0
LWPOLYLINE
  5
231
330
1F
100
AcDbEntity
  8
0
  6
Continuous
 62
     7
370
    25
100
AcDbPolyline
 90
        3
 70
   128
 43
0.0
 10
1382.4981670195
 20
-499.3112991696
 10
1382.2050123372
 20
-499.1141353583
 10
1382.0621172596
 20
-499.0284390336
  0
LINE
  5
232
330
1F
100
AcDbEntity
  8
0
  6
Continuous
 62
     7
370
    25
100
AcDbLine
 10
1367.06333627
 20
-525.009904905
 30
0.0
 11
1367.2943613201
 21
-525.1352990295
 31
0.0
  0
LWPOLYLINE
  5
233
330
1F
100
AcDbEntity
  8
0
  6
Continuous
 62
     7
370
    25
100
AcDbPolyline
 90
        3
 70
   128
 43
0.0
 10
1059.5083020011
 20
-1058.7461540693
 10
1059.2151473188
 20
-1058.548990258
 10
1059.0722522412
 20
-1058.4632939332
  0
LINE
  5
234
330
1F
100
AcDbEntity
  8
0
  6
Continuous
 62
     7
370
    25
100
AcDbLine
 10
1044.0734712517
 20
-1084.4447598047
 30
0.0
 11
1044.3044963017
 21
-1084.5701539292
 31
0.0
  0
LWPOLYLINE
  5
235
330
1F
100
AcDbEntity
  8
0
  6
Continuous
 62
     7
370
    25
100
AcDbPolyline
 90
        3
 70
   128
 43
0.0
 10
1346.0897149539
 20
-437.8151495407
 10
1345.7965602717
 20
-437.6179857294
 10
1345.6536651941
 20
-437.5322894046
  0
LINE
  5
236
330
1F
100
AcDbEntity
  8
0
  6
Continuous
 62
     7
370
    25
100
AcDbLine
 10
1330.6548842045
 20
-463.5137552761
 30
0.0
 11
1330.8859092546
 21
-463.6391494006
 31
0.0
  0
LWPOLYLINE
  5
237
330
1F
100
AcDbEntity
  8
0
  6
Continuous
 62
     7
370
    25
100
AcDbPolyline
 90
        3
 70
   128
 43
0.0
 10
988.0526914881
 20
-1057.9534633541
 10
987.7595368059
 20
-1057.7562995428
 10
987.6166417282
 20
-1057.6706032181
  0
LINE
  5
238
330
1F
100
AcDbEntity
  8
0
  6
Continuous
 62
     7
370
    25
100
AcDbLine
 10
972.6178607387
 20
-1083.6520690895
 30
0.0
 11
972.8488857887
 21
-1083.777463214
 31
0.0
  0
LWPOLYLINE
  5
239
330
1F
100
AcDbEntity
  8
0
  6
Continuous
 62
     7
370
    25
100
AcDbPolyline
 90
        3
 70
   128
 43
0.0
 10
1289.3822213769
 20
-405.0679682339
 10
1289.0890666946
 20
-404.8708044227
 10
1288.946171617
 20
-404.7851080979
  0
LINE
  5
23A
330
1F
100
AcDbEntity
  8
0
  6
Continuous
 62
     7
370
    25
100
AcDbLine
 10
1273.9473906274
 20
-430.7665739694
 30
0.0
 11
1274.1784156775
 21
-430.8919680939
 31
0.0
  0
LWPOLYLINE
  5
23B
330
1F
100
AcDbEntity
  8
0
  6
Continuous
 62
     7
370
    25
100
AcDbPolyline
 90
        3
 70
   128
 43
0.0
 10
931.345197911
 20
-1025.2062820474
 10
931.0520432288
 20
-1025.0091182361
 10
930.9091481511
 20
-1024.9234219114
  0
LINE
  5
23C
330
1F
100
AcDbEntity
  8
0
  6
Continuous
 62
     7
370
    25
100
AcDbLine
 10
915.9103671616
 20
-1050.9048877828
 30
0.0
 11
916.1413922116
 21
-1051.0302819073
 31
0.0
  0
LWPOLYLINE
  5
23D
330
1F
100
AcDbEntity
  8
0
  6
Continuous
 62
     7
370
    25
100
AcDbPolyline
 90
        3
 70
   128
 43
0.0
 10
1217.9266108639
 20
-404.2752775188
 10
1217.6334561816
 20
-404.0781137075
 10
1217.490561104
 20
-403.9924173828
  0
LINE
  5
23E
330
1F
100
AcDbEntity
  8
0
  6
Continuous
 62
     7
370
    25
100
AcDbLine
 10
1202.4917801144
 20
-429.9738832542
 30
0.0
 11
1202.7228051645
 21
-430.0992773787
 31
0.0
  0
LWPOLYLINE
  5
23F
330
1F
100
AcDbEntity
  8
0
  6
Continuous
 62
     7
370
    25
100
AcDbPolyline
 90
        3
 70
   128
 43
0.0
 10
894.9367458455
 20
-963.7101324185
 10
894.6435911632
 20
-963.5129686072
 10
894.5006960856
 20
-963.4272722825
  0
LINE
  5
240
330
1F
100
AcDbEntity
  8
0
  6
Continuous
 62
     7
370
    25
100
AcDbLine
 10
879.5019150961
 20
-989.4087381539
 30
0.0
 11
879.7329401461
 21
-989.5341322784
 31
0.0
  0
LWPOLYLINE
  5
241
330
1F
100
AcDbEntity
  8
0
  6
Continuous
 62
     7
370
    25
100
AcDbPolyline
 90
        3
 70
   128
 43
0.0
 10
1138.7174564325
 20
-435.5146714854
 10
1138.4243017502
 20
-435.3175076741
 10
1138.2814066726
 20
-435.2318113494
  0
LINE
  5
242
330
1F
100
AcDbEntity
  8
0
  6
Continuous
 62
     7
370
    25
100
AcDbLine
 10
1123.2826256831
 20
-461.2132772208
 30
0.0
 11
1123.5136507331
 21
-461.3386713453
 31
0.0
  0
LWPOLYLINE
  5
243
330
1F
100
AcDbEntity
  8
0
  6
Continuous
 62
     7
370
    25
100
AcDbPolyline
 90
        3
 70
   128
 43
0.0
 10
882.3912482523
 20
-879.4846860619
 10
882.0980935701
 20
-879.2875222506
 10
881.9551984924
 20
-879.2018259259
  0
LINE
  5
244
330
1F
100
AcDbEntity
  8
0
  6
Continuous
 62
     7
370
    25
100
AcDbLine
 10
866.9564175029
 20
-905.1832917973
 30
0.0
 11
867.1874425529
 21
-905.3086859218
 31
0.0
  0
LWPOLYLINE
  5
245
330
1F
100
AcDbEntity
  8
0
  6
Continuous
 62
     7
370
    25
100
AcDbPolyline
 90
        3
 70
   128
 43
0.0
 10
1059.5083020011
 20
-495.7282205946
 10
1059.2151473189
 20
-495.5310567833
 10
1059.0722522413
 20
-495.4453604586
  0
LINE
  5
246
330
1F
100
AcDbEntity
  8
0
  6
Continuous
 62
     7
370
    25
100
AcDbLine
 10
1044.0734712517
 20
-521.42682633
 30
0.0
 11
1044.3044963018
 21
-521.5522204545
 31
0.0
  0
LWPOLYLINE
  5
247
330
1F
100
AcDbEntity
  8
0
  6
Continuous
 62
     7
370
    25
100
AcDbPolyline
 90
        3
 70
   128
 43
0.0
 10
894.9367458455
 20
-780.7745165002
 10
894.6435911633
 20
-780.5773526889
 10
894.5006960856
 20
-780.4916563642
  0
LINE
  5
248
330
1F
100
AcDbEntity
  8
0
  6
Continuous
 62
     7
370
    25
100
AcDbLine
 10
879.5019150961
 20
-806.4731222356
 30
0.0
 11
879.7329401461
 21
-806.5985163601
 31
0.0
  0
LWPOLYLINE
  5
249
330
1F
100
AcDbEntity
  8
0
  6
Continuous
 62
     7
370
    25
100
AcDbPolyline
 90
        3
 70
   128
 43
0.0
 10
988.0526914882
 20
-579.0218031272
 10
987.7595368059
 20
-578.8246393159
 10
987.6166417283
 20
-578.7389429912
  0
LINE
  5
24A
330
1F
100
AcDbEntity
  8
0
  6
Continuous
 62
     7
370
    25
100
AcDbLine
 10
972.6178607387
 20
-604.7204088626
 30
0.0
 11
972.8488857888
 21
-604.8458029871
 31
0.0
  0
LWPOLYLINE
  5
24B
330
1F
100
AcDbEntity
  8
0
  6
Continuous
 62
     7
370
    25
100
AcDbPolyline
 90
        3
 70
   128
 43
0.0
 10
931.3451979111
 20
-677.2420628843
 10
931.0520432288
 20
-677.0448990731
 10
930.9091481512
 20
-676.9592027483
  0
LINE
  5
24C
330
1F
100
AcDbEntity
  8
0
  6
Continuous
 62
     7
370
    25
100
AcDbLine
 10
915.9103671616
 20
-702.9406686197
 30
0.0
 11
916.1413922117
 21
-703.0660627442
 31
0.0
  0
LWPOLYLINE
  5
24D
330
1F
100
AcDbEntity
  8
0
  6
Continuous
 62
     1
370
    25
100
AcDbPolyline
 90
       72
 70
   128
 43
0.0
 10
1413.2711752619
 20
-581.1410682571
 10
1413.1471163365
 20
-590.8793161631
 10
1412.7750485249
 20
-600.7522460896
 10
1412.155298624
 20
-610.7511863757
 10
1411.288410977
 20
-620.8673546825
 10
1410.1751469948
 20
-631.0918657064
 10
1408.8164844871
 20
-641.4157389834
 10
1407.2136168038
 20
-651.8299067771
 10
1405.3679517868
 20
-662.3252220429
 10
1403.2811105337
 20
-672.8924664622
 10
1400.9549259733
 20
-683.5223585391
 10
1398.3914412563
 20
-694.2055617526
 10
1395.5929079605
 20
-704.9326927571
 10
1392.5617841132
 20
-715.6943296239
 10
1389.3007320323
 20
-726.481020117
 10
1385.8126159878
 20
-737.2832899951
 10
1382.1004996861
 20
-748.0916513332
 10
1378.1676435792
 20
-758.8966108556
 10
1374.0175020007
 20
-769.6886782751
 10
1369.6537201319
 20
-780.4583746276
 10
1365.0801308002
 20
-791.1962405982
 10
1360.3007511125
 20
-801.8928448294
 10
1355.3197789269
 20
-812.5387922052
 10
1350.1415891658
 20
-823.1247321028
 10
1344.7707299728
 20
-833.6413666054
 10
1339.2119187186
 20
-844.0794586692
 10
1333.470037857
 20
-854.4298402363
 10
1327.550130637
 20
-864.6834202874
 10
1321.4573966727
 20
-874.8311928264
 10
1315.1971873769
 20
-884.8642447908
 10
1308.7750012603
 20
-894.7737638804
 10
1302.1964791022
 20
-904.5510462973
 10
1295.4673989961
 20
-914.1875043904
 10
1288.5936712747
 20
-923.6746741985
 10
1281.5813333185
 20
-933.0042228845
 10
1274.4365442531
 20
-942.1679560541
 10
1267.1655795396
 20
-951.157824953
 10
1259.7748254624
 20
-959.9659335369
 10
1252.2707735202
 20
-968.5845454064
 10
1244.6600147245
 20
-977.0060906021
 10
1236.9492338099
 20
-985.2231722536
 10
1229.1452033634
 20
-993.2285730763
 10
1221.2547778755
 20
-1001.0152617108
 10
1213.2848877199
 20
-1008.5763988984
 10
1205.242533066
 20
-1015.9053434881
 10
1197.1347777311
 20
-1022.9956582702
 10
1188.9687429753
 20
-1029.84111563
 10
1180.7516012474
 20
-1036.4357030175
 10
1172.4905698846
 20
-1042.7736282286
 10
1164.1929047736
 20
-1048.8493244927
 10
1155.8658939777
 20
-1054.6574553618
 10
1147.5168513352
 20
-1060.1929193979
 10
1139.1531100353
 20
-1065.4508546534
 10
1130.7820161779
 20
-1070.426642942
 10
1122.4109223204
 20
-1075.1159138946
 10
1114.0471810205
 20
-1079.514548798
 10
1105.698138378
 20
-1083.6186842125
 10
1097.3711275821
 20
-1087.4247153651
 10
1089.0734624711
 20
-1090.9292993161
 10
1080.8124311083
 20
-1094.1293578947
 10
1072.5952893804
 20
-1097.0220804033
 10
1064.4292546246
 20
-1099.6049260855
 10
1056.3214992897
 20
-1101.8756263583
 10
1048.2791446358
 20
-1103.8321868043
 10
1040.3092544802
 20
-1105.4728889239
 10
1032.4188289923
 20
-1106.7962916439
 10
1024.6147985458
 20
-1107.8012325841
 10
1016.9040176312
 20
-1108.4868290778
 10
1009.2932588355
 20
-1108.852478947
 10
1001.7892068933
 20
-1108.8978610316
 10
994.3984528161
 20
-1108.6229354713
 10
989.8381157969
 20
-1108.2884117004
  0
LWPOLYLINE
  5
24E
330
1F
100
AcDbEntity
  8
0
  6
Continuous
 62
     1
370
    25
100
AcDbPolyline
 90
       19
 70
   128
 43
0.0
 10
1375.3783849942
 20
-439.8192749764
 10
1378.1676435792
 20
-443.9152006409
 10
1382.1004996861
 20
-450.1793811556
 10
1385.8126159878
 20
-456.70182424
 10
1389.3007320323
 20
-463.4768010565
 10
1392.5617841132
 20
-470.4983609601
 10
1395.5929079605
 20
-477.7603367252
 10
1398.3914412563
 20
-485.2563499626
 10
1400.9549259733
 20
-492.9798167216
 10
1403.2811105337
 20
-500.923953273
 10
1405.3679517868
 20
-509.0817820673
 10
1407.2136168038
 20
-517.4461378633
 10
1408.8164844871
 20
-526.0096740216
 10
1410.1751469948
 20
-534.7648689575
 10
1411.288410977
 20
-543.7040327468
 10
1412.155298624
 20
-552.8193138809
 10
1412.7750485249
 20
-562.1027061624
 10
1413.1471163365
 20
-571.5460557374
 10
1413.2711752619
 20
-581.1410682571
  0
LWPOLYLINE
  5
24F
330
1F
100
AcDbEntity
  8
0
  6
Continuous
 62
     1
370
    25
100
AcDbPolyline
 90
       19
 70
   128
 43
0.0
 10
1447.2123007588
 20
-600.7348629408
 10
1447.0882418335
 20
-591.1398504211
 10
1446.7161740218
 20
-581.6965008462
 10
1446.096424121
 20
-572.4131085646
 10
1445.229536474
 20
-563.2978274305
 10
1444.1162724918
 20
-554.3586636412
 10
1442.757609984
 20
-545.6034687054
 10
1441.1547423007
 20
-537.039932547
 10
1439.3090772838
 20
-528.675576751
 10
1437.2222360306
 20
-520.5177479568
 10
1434.8960514702
 20
-512.5736114054
 10
1432.3325667532
 20
-504.8501446463
 10
1429.5340334574
 20
-497.3541314089
 10
1426.5029096101
 20
-490.0921556438
 10
1423.2418575292
 20
-483.0705957402
 10
1419.7537414847
 20
-476.2956189238
 10
1416.0416251831
 20
-469.7731758393
 10
1412.1087690762
 20
-463.5089953247
 10
1409.7217770778
 20
-459.9874672498
  0
LWPOLYLINE
  5
250
330
1F
100
AcDbEntity
  8
0
  6
Continuous
 62
     1
370
    25
100
AcDbPolyline
 90
       72
 70
   128
 43
0.0
 10
1024.863493115
 20
-1127.9734230588
 10
1028.3395783131
 20
-1128.2167301551
 10
1035.7303323903
 20
-1128.4916557154
 10
1043.2343843324
 20
-1128.4462736308
 10
1050.8451431282
 20
-1128.0806237615
 10
1058.5559240428
 20
-1127.3950272679
 10
1066.3599544893
 20
-1126.3900863276
 10
1074.2503799771
 20
-1125.0666836076
 10
1082.2202701328
 20
-1123.4259814881
 10
1090.2626247866
 20
-1121.469421042
 10
1098.3703801216
 20
-1119.1987207692
 10
1106.5364148773
 20
-1116.615875087
 10
1114.7535566053
 20
-1113.7231525785
 10
1123.0145879681
 20
-1110.5230939998
 10
1131.312253079
 20
-1107.0185100489
 10
1139.6392638749
 20
-1103.2124788962
 10
1147.9883065175
 20
-1099.1083434818
 10
1156.3520478174
 20
-1094.7097085784
 10
1164.7231416748
 20
-1090.0204376258
 10
1173.0942355323
 20
-1085.0446493371
 10
1181.4579768321
 20
-1079.7867140816
 10
1189.8070194747
 20
-1074.2512500456
 10
1198.1340302706
 20
-1068.4431191765
 10
1206.4316953815
 20
-1062.3674229124
 10
1214.6927267443
 20
-1056.0294977012
 10
1222.9098684723
 20
-1049.4349103137
 10
1231.0759032281
 20
-1042.589452954
 10
1239.183658563
 20
-1035.4991381718
 10
1247.2260132168
 20
-1028.1701935821
 10
1255.1959033725
 20
-1020.6090563946
 10
1263.0863288604
 20
-1012.8223677601
 10
1270.8903593068
 20
-1004.8169669373
 10
1278.6011402214
 20
-996.5998852858
 10
1286.2118990172
 20
-988.1783400901
 10
1293.7159509593
 20
-979.5597282207
 10
1301.1067050365
 20
-970.7516196367
 10
1308.3776697501
 20
-961.7617507378
 10
1315.5224588155
 20
-952.5980175683
 10
1322.5347967717
 20
-943.2684688823
 10
1329.4085244931
 20
-933.7812990741
 10
1336.1376045992
 20
-924.144840981
 10
1342.7161267573
 20
-914.3675585642
 10
1349.1383128739
 20
-904.4580394746
 10
1355.3985221697
 20
-894.4249875101
 10
1361.4912561339
 20
-884.2772149712
 10
1367.4111633539
 20
-874.0236349201
 10
1373.1530442155
 20
-863.6732533529
 10
1378.7118554697
 20
-853.2351612891
 10
1384.0827146627
 20
-842.7185267865
 10
1389.2609044239
 20
-832.132586889
 10
1394.2418766094
 20
-821.4866395132
 10
1399.0212562971
 20
-810.7900352819
 10
1403.5948456289
 20
-800.0521693114
 10
1407.9586274976
 20
-789.2824729589
 10
1412.1087690762
 20
-778.4904055394
 10
1416.0416251831
 20
-767.6854460169
 10
1419.7537414847
 20
-756.8770846789
 10
1423.2418575292
 20
-746.0748148008
 10
1426.5029096101
 20
-735.2881243077
 10
1429.5340334574
 20
-724.5264874409
 10
1432.3325667532
 20
-713.7993564364
 10
1434.8960514702
 20
-703.1161532229
 10
1437.2222360306
 20
-692.4862611459
 10
1439.3090772838
 20
-681.9190167266
 10
1441.1547423007
 20
-671.4237014608
 10
1442.757609984
 20
-661.0095336671
 10
1444.1162724918
 20
-650.6856603901
 10
1445.229536474
 20
-640.4611493663
 10
1446.096424121
 20
-630.3449810595
 10
1446.7161740218
 20
-620.3460407733
 10
1447.0882418335
 20
-610.4731108468
 10
1447.2123007588
 20
-600.7348629408
  0
LWPOLYLINE
  5
251
330
1F
100
AcDbEntity
  8
0
  6
Continuous
 62
     1
370
    25
100
AcDbPolyline
 90
       81
 70
   128
 43
0.0
 10
1244.5163425482
 20
-463.1274141299
 10
1240.0300138712
 20
-462.6432302825
 10
1233.5768396572
 20
-462.2324335314
 10
1227.0063746849
 20
-462.1433880986
 10
1220.326115974
 20
-462.3761955865
 10
1213.5436858208
 20
-462.9305903577
 10
1206.6668231012
 20
-463.8059398376
 10
1199.7033744403
 20
-465.0012452365
 10
1192.6612852594
 20
-466.5151426894
 10
1185.5485907099
 20
-468.3459048117
 10
1178.3734065054
 20
-470.4914426707
 10
1171.1439196612
 20
-472.9493081688
 10
1163.8683791529
 20
-475.7166968369
 10
1156.5550865043
 20
-478.7904510342
 10
1149.2123863149
 20
-482.1670635514
 10
1141.8486567388
 20
-485.8426816125
 10
1134.4722999251
 20
-489.8131112706
 10
1127.0917324306
 20
-494.0738221933
 10
1119.7153756169
 20
-498.6199528323
 10
1112.3516460409
 20
-503.44631597
 10
1105.0089458514
 20
-508.5474046385
 10
1097.6956532028
 20
-513.9173984031
 10
1090.4201126945
 20
-519.5501700034
 10
1083.1906258503
 20
-525.439292345
 10
1076.0154416458
 20
-531.5780458325
 10
1068.9027470963
 20
-537.9594260366
 10
1061.8606579154
 20
-544.5761516868
 10
1054.8972092545
 20
-551.4206729792
 10
1048.0203465349
 20
-558.4851801908
 10
1041.2379163817
 20
-565.7616125906
 10
1034.5576576708
 20
-573.2416676374
 10
1027.9871926985
 20
-580.9168104527
 10
1021.5340184845
 20
-588.7782835591
 10
1015.2054982178
 20
-596.8171168734
 10
1009.0088528546
 20
-605.0241379409
 10
1002.9511528798
 20
-613.3899824016
 10
997.039310239
 20
-621.9051046753
 10
991.2800704518
 20
-630.559788853
 10
985.6800049153
 20
-639.344159783
 10
980.2455034059
 20
-648.2481943388
 10
974.9827667884
 20
-657.2617328554
 10
969.8977999408
 20
-666.3744907218
 10
964.9964049024
 20
-675.576070116
 10
960.2841742539
 20
-684.855971869
 10
955.766484736
 20
-694.2036074446
 10
951.4484911143
 20
-703.608311021
 10
947.3351202979
 20
-713.0593516608
 10
943.4310657176
 20
-722.5459455551
 10
939.7407819704
 20
-732.0572683284
 10
936.268479737
 20
-741.5824673886
 10
933.0181209773
 20
-751.110674311
 10
929.9934144096
 20
-760.6310172385
 10
927.1978112789
 20
-770.1326332873
 10
924.6345014191
 20
-779.6046809409
 10
922.3064096133
 20
-789.0363524213
 10
920.2161922564
 20
-798.4168860201
 10
918.3662343244
 20
-807.7355783783
 10
916.7586466529
 20
-816.981796699
 10
915.3952635285
 20
-826.1449908792
 10
914.2776405961
 20
-835.2147055483
 10
913.4070530837
 20
-844.1805919972
 10
912.7844943475
 20
-853.0324199868
 10
912.4106747384
 20
-861.7600894209
 10
912.2860207912
 20
-870.3536418703
 10
912.4106747384
 20
-878.8032719357
 10
912.7844943475
 20
-887.099338436
 10
913.4070530837
 20
-895.2323754087
 10
914.2776405961
 20
-903.1931029113
 10
915.3952635285
 20
-910.9724376091
 10
916.7586466529
 20
-918.5615031402
 10
918.3662343244
 20
-925.9516402431
 10
920.2161922564
 20
-933.1344166373
 10
922.3064096133
 20
-940.1016366447
 10
924.6345014191
 20
-946.8453505408
 10
927.1978112789
 20
-953.3578636258
 10
929.9934144096
 20
-959.6317450041
 10
933.0181209773
 20
-965.6598360632
 10
936.268479737
 20
-971.4352586419
 10
939.7407819704
 20
-976.9514228782
 10
943.4310657176
 20
-982.2020347287
 10
943.9567200257
 20
-982.9047802925
  0
LWPOLYLINE
  5
252
330
1F
100
AcDbEntity
  8
0
  6
Continuous
 62
     1
370
    25
100
AcDbPolyline
 90
       81
 70
   128
 43
0.0
 10
979.5278601384
 20
-1004.6121742333
 10
977.3721912146
 20
-1001.7958294124
 10
973.6819074674
 20
-996.5452175619
 10
970.209605234
 20
-991.0290533256
 10
966.9592464743
 20
-985.253630747
 10
963.9345399065
 20
-979.2255396879
 10
961.1389367758
 20
-972.9516583096
 10
958.575626916
 20
-966.4391452246
 10
956.2475351102
 20
-959.6954313285
 10
954.1573177533
 20
-952.7282113211
 10
952.3073598214
 20
-945.5454349268
 10
950.6997721498
 20
-938.1552978239
 10
949.3363890254
 20
-930.5662322928
 10
948.218766093
 20
-922.786897595
 10
947.3481785807
 20
-914.8261700925
 10
946.7256198445
 20
-906.6931331197
 10
946.3518002354
 20
-898.3970666194
 10
946.2271462882
 20
-889.947436554
 10
946.3518002354
 20
-881.3538841046
 10
946.7256198445
 20
-872.6262146706
 10
947.3481785807
 20
-863.7743866809
 10
948.218766093
 20
-854.808500232
 10
949.3363890254
 20
-845.738785563
 10
950.6997721498
 20
-836.5755913827
 10
952.3073598214
 20
-827.329373062
 10
954.1573177534
 20
-818.0106807038
 10
956.2475351102
 20
-808.630147105
 10
958.575626916
 20
-799.1984756246
 10
961.1389367758
 20
-789.726427971
 10
963.9345399065
 20
-780.2248119223
 10
966.9592464743
 20
-770.7044689947
 10
970.209605234
 20
-761.1762620724
 10
973.6819074674
 20
-751.6510630121
 10
977.3721912146
 20
-742.1397402389
 10
981.2762457949
 20
-732.6531463445
 10
985.3896166113
 20
-723.2021057047
 10
989.7076102329
 20
-713.7974021284
 10
994.2252997509
 20
-704.4497665528
 10
998.9375303993
 20
-695.1698647998
 10
1003.8389254377
 20
-685.9682854055
 10
1008.9238922854
 20
-676.8555275391
 10
1014.1866289029
 20
-667.8419890225
 10
1019.6211304123
 20
-658.9379544668
 10
1025.2211959488
 20
-650.1535835367
 10
1030.9804357359
 20
-641.4988993591
 10
1036.8922783768
 20
-632.9837770854
 10
1042.9499783515
 20
-624.6179326246
 10
1049.1466237147
 20
-616.4109115572
 10
1055.4751439815
 20
-608.3720782429
 10
1061.9283181955
 20
-600.5106051364
 10
1068.4987831678
 20
-592.8354623212
 10
1075.1790418787
 20
-585.3554072744
 10
1081.9614720319
 20
-578.0789748745
 10
1088.8383347515
 20
-571.014467663
 10
1095.8017834124
 20
-564.1699463706
 10
1102.8438725933
 20
-557.5532207203
 10
1109.9565671428
 20
-551.1718405162
 10
1117.1317513473
 20
-545.0330870288
 10
1124.3612381915
 20
-539.1439646872
 10
1131.6367786998
 20
-533.5111930868
 10
1138.9500713484
 20
-528.1411993222
 10
1146.2927715378
 20
-523.0401106537
 10
1153.6565011139
 20
-518.2137475161
 10
1161.0328579276
 20
-513.6676168771
 10
1168.413425422
 20
-509.4069059543
 10
1175.7897822357
 20
-505.4364762963
 10
1183.1535118118
 20
-501.7608582352
 10
1190.4962120012
 20
-498.3842457179
 10
1197.8095046499
 20
-495.3104915206
 10
1205.0850451581
 20
-492.5431028526
 10
1212.3145320023
 20
-490.0852373545
 10
1219.4897162069
 20
-487.9396994955
 10
1226.6024107563
 20
-486.1089373731
 10
1233.6444999373
 20
-484.5950399202
 10
1240.6079485981
 20
-483.3997345213
 10
1247.4848113177
 20
-482.5243850414
 10
1254.2672414709
 20
-481.9699902703
 10
1260.9475001819
 20
-481.7371827823
 10
1267.5179651542
 20
-481.8262282151
 10
1273.9711393681
 20
-482.2370249663
 10
1275.1105657223
 20
-482.3442073643
  0
LWPOLYLINE
  5
253
330
1F
100
AcDbEntity
  8
0
  6
Continuous
 62
     1
370
    25
100
AcDbPolyline
 90
       22
 70
   128
 43
0.0
 10
1345.653665194
 20
-785.4965085677
 10
1344.5842661846
 20
-785.0344501282
 10
1343.2212585469
 20
-784.8020173917
 10
1341.7394851024
 20
-784.8903547093
 10
1340.1736773648
 20
-785.2973915292
 10
1338.5605365402
 20
-786.0135872533
 10
1336.9378732824
 20
-787.0221548608
 10
1335.3437214429
 20
-788.2994543819
 10
1333.8154465895
 20
-789.8155469983
 10
1332.3888701897
 20
-791.5348967842
 10
1331.097429985
 20
-793.4172036377
 10
1329.9713962393
 20
-795.4183478816
 10
1329.0371622292
 20
-797.491424391
 10
1328.3166256081
 20
-799.5878420095
 10
1327.8266751437
 20
-801.6584624849
 10
1327.5787948597
 20
-803.6547522283
 10
1327.5787948597
 20
-805.5299199001
 10
1327.8266751437
 20
-807.2400131594
 10
1328.3166256081
 20
-808.7449488696
 10
1329.0371622292
 20
-810.0094526131
 10
1329.9713962393
 20
-811.003885494
 10
1330.6548842045
 20
-811.4779744391
  0
LWPOLYLINE
  5
254
330
1F
100
AcDbEntity
  8
0
  6
Continuous
 62
     1
370
    25
100
AcDbPolyline
 90
       22
 70
   128
 43
0.0
 10
1288.9461716169
 20
-883.7167683248
 10
1287.8767726075
 20
-883.2547098853
 10
1286.5137649698
 20
-883.0222771488
 10
1285.0319915253
 20
-883.1106144664
 10
1283.4661837877
 20
-883.5176512863
 10
1281.8530429631
 20
-884.2338470104
 10
1280.2303797053
 20
-885.2424146179
 10
1278.6362278658
 20
-886.519714139
 10
1277.1079530124
 20
-888.0358067555
 10
1275.6813766126
 20
-889.7551565413
 10
1274.3899364079
 20
-891.6374633948
 10
1273.2639026622
 20
-893.6386076388
 10
1272.3296686521
 20
-895.7116841481
 10
1271.609132031
 20
-897.8081017666
 10
1271.1191815667
 20
-899.878722242
 10
1270.8713012826
 20
-901.8750119855
 10
1270.8713012826
 20
-903.7501796573
 10
1271.1191815667
 20
-905.4602729166
 10
1271.609132031
 20
-906.9652086267
 10
1272.3296686521
 20
-908.2297123703
 10
1273.2639026622
 20
-909.2241452512
 10
1273.9473906274
 20
-909.6982341963
  0
LWPOLYLINE
  5
255
330
1F
100
AcDbEntity
  8
0
  6
Continuous
 62
     1
370
    25
100
AcDbPolyline
 90
       22
 70
   128
 43
0.0
 10
1382.0621172596
 20
-681.9640549518
 10
1380.9927182501
 20
-681.5019965123
 10
1379.6297106125
 20
-681.2695637758
 10
1378.147937168
 20
-681.3579010934
 10
1376.5821294303
 20
-681.7649379133
 10
1374.9689886058
 20
-682.4811336374
 10
1373.346325348
 20
-683.4897012449
 10
1371.7521735084
 20
-684.767000766
 10
1370.2238986551
 20
-686.2830933824
 10
1368.7973222552
 20
-688.0024431683
 10
1367.5058820505
 20
-689.8847500218
 10
1366.3798483048
 20
-691.8858942658
 10
1365.4456142948
 20
-693.9589707751
 10
1364.7250776737
 20
-696.0553883936
 10
1364.2351272093
 20
-698.126008869
 10
1363.9872469252
 20
-700.1222986124
 10
1363.9872469252
 20
-701.9974662842
 10
1364.2351272093
 20
-703.7075595435
 10
1364.7250776737
 20
-705.2124952537
 10
1365.4456142948
 20
-706.4769989973
 10
1366.3798483048
 20
-707.4714318782
 10
1367.06333627
 20
-707.9455208232
  0
LWPOLYLINE
  5
256
330
1F
100
AcDbEntity
  8
0
  6
Continuous
 62
     1
370
    25
100
AcDbPolyline
 90
       22
 70
   128
 43
0.0
 10
1217.4905611039
 20
-967.0103508574
 10
1216.4211620945
 20
-966.5482924179
 10
1215.0581544568
 20
-966.3158596814
 10
1213.5763810123
 20
-966.404196999
 10
1212.0105732747
 20
-966.8112338189
 10
1210.3974324501
 20
-967.527429543
 10
1208.7747691923
 20
-968.5359971505
 10
1207.1806173528
 20
-969.8132966716
 10
1205.6523424995
 20
-971.329389288
 10
1204.2257660996
 20
-973.0487390739
 10
1202.9343258949
 20
-974.9310459274
 10
1201.8082921492
 20
-976.9321901714
 10
1200.8740581391
 20
-979.0052666807
 10
1200.1535215181
 20
-981.1016842992
 10
1199.6635710537
 20
-983.1723047746
 10
1199.4156907696
 20
-985.168594518
 10
1199.4156907696
 20
-987.0437621899
 10
1199.6635710537
 20
-988.7538554491
 10
1200.1535215181
 20
-990.2587911593
 10
1200.8740581391
 20
-991.5232949029
 10
1201.8082921492
 20
-992.5177277838
 10
1202.4917801144
 20
-992.9918167289
  0
LWPOLYLINE
  5
257
330
1F
100
AcDbEntity
  8
0
  6
Continuous
 62
     1
370
    25
100
AcDbPolyline
 90
       22
 70
   128
 43
0.0
 10
1394.6076148528
 20
-583.2538853901
 10
1393.5382158433
 20
-582.7918269506
 10
1392.1752082057
 20
-582.5593942141
 10
1390.6934347612
 20
-582.6477315317
 10
1389.1276270235
 20
-583.0547683516
 10
1387.514486199
 20
-583.7709640757
 10
1385.8918229412
 20
-584.7795316832
 10
1384.2976711016
 20
-586.0568312043
 10
1382.7693962483
 20
-587.5729238207
 10
1381.3428198484
 20
-589.2922736066
 10
1380.0513796437
 20
-591.1745804601
 10
1378.925345898
 20
-593.1757247041
 10
1377.991111888
 20
-595.2488012134
 10
1377.2705752669
 20
-597.3452188319
 10
1376.7806248025
 20
-599.4158393073
 10
1376.5327445184
 20
-601.4121290508
 10
1376.5327445184
 20
-603.2872967226
 10
1376.7806248025
 20
-604.9973899819
 10
1377.2705752669
 20
-606.502325692
 10
1377.991111888
 20
-607.7668294356
 10
1378.925345898
 20
-608.7612623165
 10
1379.6088338632
 20
-609.2353512616
  0
LWPOLYLINE
  5
258
330
1F
100
AcDbEntity
  8
0
  6
Continuous
 62
     1
370
    25
100
AcDbPolyline
 90
       22
 70
   128
 43
0.0
 10
1138.2814066726
 20
-1027.2238999667
 10
1137.2120076631
 20
-1026.7618415271
 10
1135.8490000255
 20
-1026.5294087906
 10
1134.367226581
 20
-1026.6177461082
 10
1132.8014188433
 20
-1027.0247829281
 10
1131.1882780188
 20
-1027.7409786522
 10
1129.565614761
 20
-1028.7495462597
 10
1127.9714629214
 20
-1030.0268457808
 10
1126.4431880681
 20
-1031.5429383973
 10
1125.0166116682
 20
-1033.2622881831
 10
1123.7251714635
 20
-1035.1445950366
 10
1122.5991377178
 20
-1037.1457392806
 10
1121.6649037078
 20
-1039.21881579
 10
1120.9443670867
 20
-1041.3152334084
 10
1120.4544166223
 20
-1043.3858538838
 10
1120.2065363382
 20
-1045.3821436273
 10
1120.2065363382
 20
-1047.2573112991
 10
1120.4544166223
 20
-1048.9674045584
 10
1120.9443670867
 20
-1050.4723402685
 10
1121.6649037078
 20
-1051.7368440121
 10
1122.5991377178
 20
-1052.731276893
 10
1123.282625683
 20
-1053.2053658381
  0
LWPOLYLINE
  5
259
330
1F
100
AcDbEntity
  8
0
  6
Continuous
 62
     1
370
    25
100
AcDbPolyline
 90
       22
 70
   128
 43
0.0
 10
1382.0621172596
 20
-499.0284390336
 10
1380.9927182501
 20
-498.566380594
 10
1379.6297106125
 20
-498.3339478575
 10
1378.147937168
 20
-498.4222851751
 10
1376.5821294303
 20
-498.829321995
 10
1374.9689886058
 20
-499.5455177191
 10
1373.346325348
 20
-500.5540853266
 10
1371.7521735084
 20
-501.8313848477
 10
1370.2238986551
 20
-503.3474774642
 10
1368.7973222552
 20
-505.06682725
 10
1367.5058820505
 20
-506.9491341035
 10
1366.3798483049
 20
-508.9502783475
 10
1365.4456142948
 20
-511.0233548569
 10
1364.7250776737
 20
-513.1197724753
 10
1364.2351272093
 20
-515.1903929507
 10
1363.9872469252
 20
-517.1866826942
 10
1363.9872469252
 20
-519.061850366
 10
1364.2351272093
 20
-520.7719436253
 10
1364.7250776737
 20
-522.2768793354
 10
1365.4456142948
 20
-523.541383079
 10
1366.3798483049
 20
-524.5358159599
 10
1367.06333627
 20
-525.009904905
  0
LWPOLYLINE
  5
25A
330
1F
100
AcDbEntity
  8
0
  6
Continuous
 62
     1
370
    25
100
AcDbPolyline
 90
       22
 70
   128
 43
0.0
 10
1059.0722522412
 20
-1058.4632939332
 10
1058.0028532318
 20
-1058.0012354937
 10
1056.6398455941
 20
-1057.7688027572
 10
1055.1580721496
 20
-1057.8571400748
 10
1053.592264412
 20
-1058.2641768947
 10
1051.9791235874
 20
-1058.9803726188
 10
1050.3564603296
 20
-1059.9889402263
 10
1048.7623084901
 20
-1061.2662397474
 10
1047.2340336367
 20
-1062.7823323638
 10
1045.8074572369
 20
-1064.5016821497
 10
1044.5160170322
 20
-1066.3839890032
 10
1043.3899832865
 20
-1068.3851332472
 10
1042.4557492764
 20
-1070.4582097565
 10
1041.7352126553
 20
-1072.554627375
 10
1041.2452621909
 20
-1074.6252478504
 10
1040.9973819069
 20
-1076.6215375939
 10
1040.9973819069
 20
-1078.4967052657
 10
1041.2452621909
 20
-1080.206798525
 10
1041.7352126553
 20
-1081.7117342351
 10
1042.4557492764
 20
-1082.9762379787
 10
1043.3899832865
 20
-1083.9706708596
 10
1044.0734712517
 20
-1084.4447598047
  0
LWPOLYLINE
  5
25B
330
1F
100
AcDbEntity
  8
0
  6
Continuous
 62
     1
370
    25
100
AcDbPolyline
 90
       22
 70
   128
 43
0.0
 10
1345.6536651941
 20
-437.5322894046
 10
1344.5842661846
 20
-437.0702309651
 10
1343.2212585469
 20
-436.8377982286
 10
1341.7394851025
 20
-436.9261355462
 10
1340.1736773648
 20
-437.3331723661
 10
1338.5605365402
 20
-438.0493680902
 10
1336.9378732825
 20
-439.0579356977
 10
1335.3437214429
 20
-440.3352352188
 10
1333.8154465896
 20
-441.8513278352
 10
1332.3888701897
 20
-443.5706776211
 10
1331.097429985
 20
-445.4529844746
 10
1329.9713962393
 20
-447.4541287186
 10
1329.0371622293
 20
-449.5272052279
 10
1328.3166256082
 20
-451.6236228464
 10
1327.8266751438
 20
-453.6942433218
 10
1327.5787948597
 20
-455.6905330653
 10
1327.5787948597
 20
-457.5657007371
 10
1327.8266751438
 20
-459.2757939964
 10
1328.3166256082
 20
-460.7807297065
 10
1329.0371622293
 20
-462.0452334501
 10
1329.9713962393
 20
-463.039666331
 10
1330.6548842045
 20
-463.5137552761
  0
LWPOLYLINE
  5
25C
330
1F
100
AcDbEntity
  8
0
  6
Continuous
 62
     1
370
    25
100
AcDbPolyline
 90
       22
 70
   128
 43
0.0
 10
987.6166417282
 20
-1057.6706032181
 10
986.5472427188
 20
-1057.2085447785
 10
985.1842350811
 20
-1056.976112042
 10
983.7024616366
 20
-1057.0644493597
 10
982.136653899
 20
-1057.4714861796
 10
980.5235130744
 20
-1058.1876819036
 10
978.9008498166
 20
-1059.1962495112
 10
977.3066979771
 20
-1060.4735490322
 10
975.7784231237
 20
-1061.9896416487
 10
974.3518467239
 20
-1063.7089914345
 10
973.0604065192
 20
-1065.5912982881
 10
971.9343727735
 20
-1067.592442532
 10
971.0001387634
 20
-1069.6655190414
 10
970.2796021423
 20
-1071.7619366598
 10
969.7896516779
 20
-1073.8325571353
 10
969.5417713939
 20
-1075.8288468787
 10
969.5417713939
 20
-1077.7040145505
 10
969.7896516779
 20
-1079.4141078098
 10
970.2796021423
 20
-1080.91904352
 10
971.0001387634
 20
-1082.1835472635
 10
971.9343727735
 20
-1083.1779801444
 10
972.6178607387
 20
-1083.6520690895
  0
LWPOLYLINE
  5
25D
330
1F
100
AcDbEntity
  8
0
  6
Continuous
 62
     1
370
    25
100
AcDbPolyline
 90
       22
 70
   128
 43
0.0
 10
1288.946171617
 20
-404.7851080979
 10
1287.8767726075
 20
-404.3230496584
 10
1286.5137649699
 20
-404.0906169219
 10
1285.0319915254
 20
-404.1789542395
 10
1283.4661837877
 20
-404.5859910594
 10
1281.8530429632
 20
-405.3021867835
 10
1280.2303797054
 20
-406.310754391
 10
1278.6362278658
 20
-407.5880539121
 10
1277.1079530125
 20
-409.1041465285
 10
1275.6813766126
 20
-410.8234963144
 10
1274.3899364079
 20
-412.7058031679
 10
1273.2639026622
 20
-414.7069474119
 10
1272.3296686522
 20
-416.7800239212
 10
1271.6091320311
 20
-418.8764415397
 10
1271.1191815667
 20
-420.9470620151
 10
1270.8713012826
 20
-422.9433517585
 10
1270.8713012826
 20
-424.8185194304
 10
1271.1191815667
 20
-426.5286126896
 10
1271.6091320311
 20
-428.0335483998
 10
1272.3296686522
 20
-429.2980521434
 10
1273.2639026622
 20
-430.2924850243
 10
1273.9473906274
 20
-430.7665739694
  0
LWPOLYLINE
  5
25E
330
1F
100
AcDbEntity
  8
0
  6
Continuous
 62
     1
370
    25
100
AcDbPolyline
 90
       22
 70
   128
 43
0.0
 10
930.9091481511
 20
-1024.9234219114
 10
929.8397491417
 20
-1024.4613634718
 10
928.476741504
 20
-1024.2289307353
 10
926.9949680595
 20
-1024.317268053
 10
925.4291603219
 20
-1024.7243048729
 10
923.8160194973
 20
-1025.4405005969
 10
922.1933562395
 20
-1026.4490682045
 10
920.5992044
 20
-1027.7263677255
 10
919.0709295467
 20
-1029.242460342
 10
917.6443531468
 20
-1030.9618101278
 10
916.3529129421
 20
-1032.8441169814
 10
915.2268791964
 20
-1034.8452612253
 10
914.2926451863
 20
-1036.9183377347
 10
913.5721085653
 20
-1039.0147553531
 10
913.0821581009
 20
-1041.0853758286
 10
912.8342778168
 20
-1043.081665572
 10
912.8342778168
 20
-1044.9568332438
 10
913.0821581009
 20
-1046.6669265031
 10
913.5721085653
 20
-1048.1718622133
 10
914.2926451863
 20
-1049.4363659568
 10
915.2268791964
 20
-1050.4307988377
 10
915.9103671616
 20
-1050.9048877828
  0
LWPOLYLINE
  5
25F
330
1F
100
AcDbEntity
  8
0
  6
Continuous
 62
     1
370
    25
100
AcDbPolyline
 90
       22
 70
   128
 43
0.0
 10
1217.490561104
 20
-403.9924173828
 10
1216.4211620945
 20
-403.5303589432
 10
1215.0581544569
 20
-403.2979262067
 10
1213.5763810124
 20
-403.3862635244
 10
1212.0105732747
 20
-403.7933003443
 10
1210.3974324502
 20
-404.5094960683
 10
1208.7747691924
 20
-405.5180636759
 10
1207.1806173528
 20
-406.7953631969
 10
1205.6523424995
 20
-408.3114558134
 10
1204.2257660996
 20
-410.0308055992
 10
1202.9343258949
 20
-411.9131124528
 10
1201.8082921493
 20
-413.9142566967
 10
1200.8740581392
 20
-415.9873332061
 10
1200.1535215181
 20
-418.0837508245
 10
1199.6635710537
 20
-420.1543713
 10
1199.4156907696
 20
-422.1506610434
 10
1199.4156907696
 20
-424.0258287152
 10
1199.6635710537
 20
-425.7359219745
 10
1200.1535215181
 20
-427.2408576847
 10
1200.8740581392
 20
-428.5053614282
 10
1201.8082921493
 20
-429.4997943091
 10
1202.4917801144
 20
-429.9738832542
  0
LWPOLYLINE
  5
260
330
1F
100
AcDbEntity
  8
0
  6
Continuous
 62
     1
370
    25
100
AcDbPolyline
 90
       22
 70
   128
 43
0.0
 10
894.5006960856
 20
-963.4272722825
 10
893.4312970762
 20
-962.9652138429
 10
892.0682894385
 20
-962.7327811064
 10
890.586515994
 20
-962.821118424
 10
889.0207082564
 20
-963.2281552439
 10
887.4075674318
 20
-963.944350968
 10
885.784904174
 20
-964.9529185756
 10
884.1907523345
 20
-966.2302180966
 10
882.6624774811
 20
-967.7463107131
 10
881.2359010813
 20
-969.4656604989
 10
879.9444608766
 20
-971.3479673525
 10
878.8184271309
 20
-973.3491115964
 10
877.8841931208
 20
-975.4221881058
 10
877.1636564997
 20
-977.5186057242
 10
876.6737060353
 20
-979.5892261996
 10
876.4258257513
 20
-981.5855159431
 10
876.4258257513
 20
-983.4606836149
 10
876.6737060353
 20
-985.1707768742
 10
877.1636564997
 20
-986.6757125843
 10
877.8841931208
 20
-987.9402163279
 10
878.8184271309
 20
-988.9346492088
 10
879.5019150961
 20
-989.4087381539
  0
LWPOLYLINE
  5
261
330
1F
100
AcDbEntity
  8
0
  6
Continuous
 62
     1
370
    25
100
AcDbPolyline
 90
       22
 70
   128
 43
0.0
 10
1138.2814066726
 20
-435.2318113494
 10
1137.2120076632
 20
-434.7697529098
 10
1135.8490000255
 20
-434.5373201733
 10
1134.367226581
 20
-434.6256574909
 10
1132.8014188434
 20
-435.0326943108
 10
1131.1882780188
 20
-435.7488900349
 10
1129.565614761
 20
-436.7574576425
 10
1127.9714629215
 20
-438.0347571635
 10
1126.4431880681
 20
-439.55084978
 10
1125.0166116683
 20
-441.2701995658
 10
1123.7251714636
 20
-443.1525064194
 10
1122.5991377179
 20
-445.1536506633
 10
1121.6649037078
 20
-447.2267271727
 10
1120.9443670867
 20
-449.3231447911
 10
1120.4544166223
 20
-451.3937652665
 10
1120.2065363383
 20
-453.39005501
 10
1120.2065363383
 20
-455.2652226818
 10
1120.4544166223
 20
-456.9753159411
 10
1120.9443670867
 20
-458.4802516513
 10
1121.6649037078
 20
-459.7447553948
 10
1122.5991377179
 20
-460.7391882757
 10
1123.2826256831
 20
-461.2132772208
  0
LWPOLYLINE
  5
262
330
1F
100
AcDbEntity
  8
0
  6
Continuous
 62
     1
370
    25
100
AcDbPolyline
 90
       22
 70
   128
 43
0.0
 10
881.9551984924
 20
-879.2018259259
 10
880.885799483
 20
-878.7397674863
 10
879.5227918453
 20
-878.5073347498
 10
878.0410184008
 20
-878.5956720675
 10
876.4752106632
 20
-879.0027088873
 10
874.8620698386
 20
-879.7189046114
 10
873.2394065808
 20
-880.727472219
 10
871.6452547413
 20
-882.00477174
 10
870.1169798879
 20
-883.5208643565
 10
868.6904034881
 20
-885.2402141423
 10
867.3989632834
 20
-887.1225209959
 10
866.2729295377
 20
-889.1236652398
 10
865.3386955276
 20
-891.1967417492
 10
864.6181589065
 20
-893.2931593676
 10
864.1282084422
 20
-895.3637798431
 10
863.8803281581
 20
-897.3600695865
 10
863.8803281581
 20
-899.2352372583
 10
864.1282084422
 20
-900.9453305176
 10
864.6181589065
 20
-902.4502662278
 10
865.3386955276
 20
-903.7147699713
 10
866.2729295377
 20
-904.7092028522
 10
866.9564175029
 20
-905.1832917973
  0
LWPOLYLINE
  5
263
330
1F
100
AcDbEntity
  8
0
  6
Continuous
 62
     1
370
    25
100
AcDbPolyline
 90
       22
 70
   128
 43
0.0
 10
1059.0722522413
 20
-495.4453604586
 10
1058.0028532318
 20
-494.9833020191
 10
1056.6398455941
 20
-494.7508692826
 10
1055.1580721497
 20
-494.8392066002
 10
1053.592264412
 20
-495.2462434201
 10
1051.9791235874
 20
-495.9624391441
 10
1050.3564603297
 20
-496.9710067517
 10
1048.7623084901
 20
-498.2483062728
 10
1047.2340336368
 20
-499.7643988892
 10
1045.8074572369
 20
-501.483748675
 10
1044.5160170322
 20
-503.3660555286
 10
1043.3899832865
 20
-505.3671997725
 10
1042.4557492765
 20
-507.4402762819
 10
1041.7352126554
 20
-509.5366939003
 10
1041.245262191
 20
-511.6073143758
 10
1040.9973819069
 20
-513.6036041192
 10
1040.9973819069
 20
-515.478771791
 10
1041.245262191
 20
-517.1888650503
 10
1041.7352126554
 20
-518.6938007605
 10
1042.4557492765
 20
-519.958304504
 10
1043.3899832865
 20
-520.9527373849
 10
1044.0734712517
 20
-521.42682633
  0
LWPOLYLINE
  5
264
330
1F
100
AcDbEntity
  8
0
  6
Continuous
 62
     1
370
    25
100
AcDbPolyline
 90
       22
 70
   128
 43
0.0
 10
894.5006960856
 20
-780.4916563642
 10
893.4312970762
 20
-780.0295979247
 10
892.0682894385
 20
-779.7971651882
 10
890.586515994
 20
-779.8855025058
 10
889.0207082564
 20
-780.2925393257
 10
887.4075674318
 20
-781.0087350498
 10
885.784904174
 20
-782.0173026573
 10
884.1907523345
 20
-783.2946021784
 10
882.6624774811
 20
-784.8106947948
 10
881.2359010813
 20
-786.5300445807
 10
879.9444608766
 20
-788.4123514342
 10
878.8184271309
 20
-790.4134956781
 10
877.8841931208
 20
-792.4865721875
 10
877.1636564997
 20
-794.582989806
 10
876.6737060353
 20
-796.6536102814
 10
876.4258257513
 20
-798.6499000248
 10
876.4258257513
 20
-800.5250676966
 10
876.6737060353
 20
-802.2351609559
 10
877.1636564997
 20
-803.7400966661
 10
877.8841931208
 20
-805.0046004096
 10
878.8184271309
 20
-805.9990332905
 10
879.5019150961
 20
-806.4731222356
  0
LWPOLYLINE
  5
265
330
1F
100
AcDbEntity
  8
0
  6
Continuous
 62
     1
370
    25
100
AcDbPolyline
 90
       22
 70
   128
 43
0.0
 10
987.6166417283
 20
-578.7389429912
 10
986.5472427188
 20
-578.2768845516
 10
985.1842350812
 20
-578.0444518151
 10
983.7024616367
 20
-578.1327891328
 10
982.136653899
 20
-578.5398259526
 10
980.5235130744
 20
-579.2560216767
 10
978.9008498167
 20
-580.2645892843
 10
977.3066979771
 20
-581.5418888053
 10
975.7784231238
 20
-583.0579814218
 10
974.3518467239
 20
-584.7773312076
 10
973.0604065192
 20
-586.6596380612
 10
971.9343727735
 20
-588.6607823051
 10
971.0001387635
 20
-590.7338588145
 10
970.2796021424
 20
-592.8302764329
 10
969.789651678
 20
-594.9008969084
 10
969.5417713939
 20
-596.8971866518
 10
969.5417713939
 20
-598.7723543236
 10
969.789651678
 20
-600.4824475829
 10
970.2796021424
 20
-601.9873832931
 10
971.0001387635
 20
-603.2518870366
 10
971.9343727735
 20
-604.2463199175
 10
972.6178607387
 20
-604.7204088626
  0
LWPOLYLINE
  5
266
330
1F
100
AcDbEntity
  8
0
  6
Continuous
 62
     1
370
    25
100
AcDbPolyline
 90
       22
 70
   128
 43
0.0
 10
930.9091481512
 20
-676.9592027483
 10
929.8397491417
 20
-676.4971443088
 10
928.4767415041
 20
-676.2647115723
 10
926.9949680596
 20
-676.3530488899
 10
925.4291603219
 20
-676.7600857098
 10
923.8160194974
 20
-677.4762814339
 10
922.1933562396
 20
-678.4848490414
 10
920.5992044
 20
-679.7621485625
 10
919.0709295467
 20
-681.2782411789
 10
917.6443531468
 20
-682.9975909648
 10
916.3529129421
 20
-684.8798978183
 10
915.2268791964
 20
-686.8810420622
 10
914.2926451864
 20
-688.9541185716
 10
913.5721085653
 20
-691.0505361901
 10
913.0821581009
 20
-693.1211566655
 10
912.8342778168
 20
-695.1174464089
 10
912.8342778168
 20
-696.9926140807
 10
913.0821581009
 20
-698.70270734
 10
913.5721085653
 20
-700.2076430502
 10
914.2926451864
 20
-701.4721467937
 10
915.2268791964
 20
-702.4665796747
 10
915.9103671616
 20
-702.9406686197
  0
ENDSEC
  0
SECTION
  2
OBJECTS
  0
DICTIONARY
  5
C
330
0
100
AcDbDictionary
281
     1
  3
ACAD_GROUP
350
D
  3
ACAD_LAYOUT
350
1A
  3
ACAD_MLINESTYLE
350
17
  3
ACAD_PLOTSETTINGS
350
19
  3
ACAD_PLOTSTYLENAME
350
E
  3
ACAD_SCALELIST
350
47
  3
DWGPROPS
350
267
  0
DICTIONARY
  5
D
102
{ACAD_REACTORS
330
C
102
}
330
C
100
AcDbDictionary
281
     1
  0
DICTIONARY
  5
1A
102
{ACAD_REACTORS
330
C
102
}
330
C
100
AcDbDictionary
281
     1
  3
Layout1
350
1E
  3
Layout2
350
26
  3
Model
350
22
  0
DICTIONARY
  5
17
102
{ACAD_REACTORS
330
C
102
}
330
C
100
AcDbDictionary
281
     1
  3
Standard
350
18
  0
DICTIONARY
  5
19
102
{ACAD_REACTORS
330
C
102
}
330
C
100
AcDbDictionary
281
     1
  0
ACDBDICTIONARYWDFLT
  5
E
102
{ACAD_REACTORS
330
C
102
}
330
C
100
AcDbDictionary
281
     1
  3
Normal
350
F
100
AcDbDictionaryWithDefault
340
F
  0
DICTIONARY
  5
47
102
{ACAD_REACTORS
330
C
102
}
330
C
100
AcDbDictionary
281
     1
  3
A0
350
48
  3
A1
350
49
  3
A2
350
4A
  3
A3
350
4B
  3
A4
350
4C
  3
A5
350
4D
  3
A6
350
4E
  3
A7
350
4F
  3
A8
350
50
  3
A9
350
51
  3
B0
350
52
  3
B1
350
53
  3
B2
350
54
  3
B3
350
55
  3
B4
350
56
  3
B5
350
57
  3
B6
350
58
  3
B7
350
59
  3
B8
350
5A
  3
B9
350
5B
  3
C0
350
5C
  3
C1
350
5D
  3
C2
350
5E
  3
C3
350
5F
  3
C4
350
60
  3
C5
350
61
  3
C6
350
62
  3
C7
350
63
  3
C8
350
64
  3
C9
350
65
  3
D0
350
66
  3
D1
350
67
  3
D2
350
68
  0
XRECORD
  5
267
102
{ACAD_REACTORS
330
C
102
}
330
C
100
AcDbXrecord
280
     1
  1
DWGPROPS COOKIE
  2

  3

  4

  6

  7

  8
b.kav
  9

300
=
301
=
302
=
303
=
304
=
305
=
306
=
307
=
308
=
309
=
 40
0.0
 41
2459741.466098472
 42
2459741.466101944
  1

 90
        0
  0
LAYOUT
  5
1E
102
{ACAD_REACTORS
330
1A
102
}
330
1A
100
AcDbPlotSettings
  1

  2
none_device
  4

  6

 40
0.0
 41
0.0
 42
0.0
 43
0.0
 44
0.0
 45
0.0
 46
0.0
 47
0.0
 48
0.0
 49
0.0
140
0.0
141
0.0
142
1.0
143
1.0
 70
   688
 72
     1
 73
     0
 74
     5
  7

 75
    16
147
1.0
148
0.0
149
0.0
100
AcDbLayout
  1
Layout1
 70
     1
 71
     1
 10
0.0
 20
0.0
 11
420.0
 21
297.0
 12
0.0
 22
0.0
 32
0.0
 14
1.0000000000E+20
 24
1.0000000000E+20
 34
1.0000000000E+20
 15
-1.0000000000E+20
 25
-1.0000000000E+20
 35
-1.0000000000E+20
146
0.0
 13
0.0
 23
0.0
 33
0.0
 16
1.0
 26
0.0
 36
0.0
 17
0.0
 27
1.0
 37
0.0
 76
     0
330
1B
  0
LAYOUT
  5
26
102
{ACAD_REACTORS
330
1A
102
}
330
1A
100
AcDbPlotSettings
  1

  2
none_device
  4

  6

 40
0.0
 41
0.0
 42
0.0
 43
0.0
 44
0.0
 45
0.0
 46
0.0
 47
0.0
 48
0.0
 49
0.0
140
0.0
141
0.0
142
1.0
143
1.0
 70
   688
 72
     1
 73
     0
 74
     5
  7

 75
    16
147
1.0
148
0.0
149
0.0
100
AcDbLayout
  1
Layout2
 70
     1
 71
     2
 10
0.0
 20
0.0
 11
0.0
 21
0.0
 12
0.0
 22
0.0
 32
0.0
 14
0.0
 24
0.0
 34
0.0
 15
0.0
 25
0.0
 35
0.0
146
0.0
 13
0.0
 23
0.0
 33
0.0
 16
1.0
 26
0.0
 36
0.0
 17
0.0
 27
1.0
 37
0.0
 76
     0
330
23
  0
LAYOUT
  5
22
102
{ACAD_REACTORS
330
1A
102
}
330
1A
100
AcDbPlotSettings
  1

  2
none_device
  4
Letter_(8.50_x_11.00_Inches)
  6

 40
6.35
 41
6.35
 42
6.35000508
 43
6.35000508
 44
215.9
 45
279.4
 46
0.0
 47
0.0
 48
0.0
 49
0.0
140
0.0
141
0.0
142
1.0
143
1.0
 70
  1712
 72
     1
 73
     0
 74
     0
  7

 75
     0
147
1.0
148
0.0
149
0.0
100
AcDbLayout
  1
Model
 70
     1
 71
     0
 10
0.0
 20
0.0
 11
279.4
 21
215.9
 12
0.0
 22
0.0
 32
0.0
 14
0.0
 24
0.0
 34
0.0
 15
279.4
 25
215.9
 35
0.0
146
0.0
 13
0.0
 23
0.0
 33
0.0
 16
1.0
 26
0.0
 36
0.0
 17
0.0
 27
1.0
 37
0.0
 76
     0
330
1F
331
29
  0
MLINESTYLE
  5
18
102
{ACAD_REACTORS
330
17
102
}
330
17
100
AcDbMlineStyle
  2
Standard
 70
     0
  3

 62
   256
 51
90.0
 52
90.0
 71
     2
 49
0.5
 62
   256
  6
BYLAYER
 49
-0.5
 62
   256
  6
BYLAYER
  0
ACDBPLACEHOLDER
  5
F
102
{ACAD_REACTORS
330
E
102
}
330
E
  0
SCALE
  5
48
102
{ACAD_REACTORS
330
47
102
}
330
47
100
AcDbScale
 70
     0
300
1:1
140
1.0
141
1.0
290
     1
  0
SCALE
  5
49
102
{ACAD_REACTORS
330
47
102
}
330
47
100
AcDbScale
 70
     0
300
1:2
140
1.0
141
2.0
290
     0
  0
SCALE
  5
4A
102
{ACAD_REACTORS
330
47
102
}
330
47
100
AcDbScale
 70
     0
300
1:4
140
1.0
141
4.0
290
     0
  0
SCALE
  5
4B
102
{ACAD_REACTORS
330
47
102
}
330
47
100
AcDbScale
 70
     0
300
1:5
140
1.0
141
5.0
290
     0
  0
SCALE
  5
4C
102
{ACAD_REACTORS
330
47
102
}
330
47
100
AcDbScale
 70
     0
300
1:8
140
1.0
141
8.0
290
     0
  0
SCALE
  5
4D
102
{ACAD_REACTORS
330
47
102
}
330
47
100
AcDbScale
 70
     0
300
1:10
140
1.0
141
10.0
290
     0
  0
SCALE
  5
4E
102
{ACAD_REACTORS
330
47
102
}
330
47
100
AcDbScale
 70
     0
300
1:16
140
1.0
141
16.0
290
     0
  0
SCALE
  5
4F
102
{ACAD_REACTORS
330
47
102
}
330
47
100
AcDbScale
 70
     0
300
1:20
140
1.0
141
20.0
290
     0
  0
SCALE
  5
50
102
{ACAD_REACTORS
330
47
102
}
330
47
100
AcDbScale
 70
     0
300
1:30
140
1.0
141
30.0
290
     0
  0
SCALE
  5
51
102
{ACAD_REACTORS
330
47
102
}
330
47
100
AcDbScale
 70
     0
300
1:40
140
1.0
141
40.0
290
     0
  0
SCALE
  5
52
102
{ACAD_REACTORS
330
47
102
}
330
47
100
AcDbScale
 70
     0
300
1:50
140
1.0
141
50.0
290
     0
  0
SCALE
  5
53
102
{ACAD_REACTORS
330
47
102
}
330
47
100
AcDbScale
 70
     0
300
1:100
140
1.0
141
100.0
290
     0
  0
SCALE
  5
54
102
{ACAD_REACTORS
330
47
102
}
330
47
100
AcDbScale
 70
     0
300
2:1
140
2.0
141
1.0
290
     0
  0
SCALE
  5
55
102
{ACAD_REACTORS
330
47
102
}
330
47
100
AcDbScale
 70
     0
300
4:1
140
4.0
141
1.0
290
     0
  0
SCALE
  5
56
102
{ACAD_REACTORS
330
47
102
}
330
47
100
AcDbScale
 70
     0
300
8:1
140
8.0
141
1.0
290
     0
  0
SCALE
  5
57
102
{ACAD_REACTORS
330
47
102
}
330
47
100
AcDbScale
 70
     0
300
10:1
140
10.0
141
1.0
290
     0
  0
SCALE
  5
58
102
{ACAD_REACTORS
330
47
102
}
330
47
100
AcDbScale
 70
     0
300
100:1
140
100.0
141
1.0
290
     0
  0
SCALE
  5
59
102
{ACAD_REACTORS
330
47
102
}
330
47
100
AcDbScale
 70
     0
300
1/128" = 1'-0"
140
0.0078125
141
12.0
290
     0
  0
SCALE
  5
5A
102
{ACAD_REACTORS
330
47
102
}
330
47
100
AcDbScale
 70
     0
300
1/64" = 1'-0"
140
0.015625
141
12.0
290
     0
  0
SCALE
  5
5B
102
{ACAD_REACTORS
330
47
102
}
330
47
100
AcDbScale
 70
     0
300
1/32" = 1'-0"
140
0.03125
141
12.0
290
     0
  0
SCALE
  5
5C
102
{ACAD_REACTORS
330
47
102
}
330
47
100
AcDbScale
 70
     0
300
1/16" = 1'-0"
140
0.0625
141
12.0
290
     0
  0
SCALE
  5
5D
102
{ACAD_REACTORS
330
47
102
}
330
47
100
AcDbScale
 70
     0
300
3/32" = 1'-0"
140
0.09375
141
12.0
290
     0
  0
SCALE
  5
5E
102
{ACAD_REACTORS
330
47
102
}
330
47
100
AcDbScale
 70
     0
300
1/8" = 1'-0"
140
0.125
141
12.0
290
     0
  0
SCALE
  5
5F
102
{ACAD_REACTORS
330
47
102
}
330
47
100
AcDbScale
 70
     0
300
3/16" = 1'-0"
140
0.1875
141
12.0
290
     0
  0
SCALE
  5
60
102
{ACAD_REACTORS
330
47
102
}
330
47
100
AcDbScale
 70
     0
300
1/4" = 1'-0"
140
0.25
141
12.0
290
     0
  0
SCALE
  5
61
102
{ACAD_REACTORS
330
47
102
}
330
47
100
AcDbScale
 70
     0
300
3/8" = 1'-0"
140
0.375
141
12.0
290
     0
  0
SCALE
  5
62
102
{ACAD_REACTORS
330
47
102
}
330
47
100
AcDbScale
 70
     0
300
1/2" = 1'-0"
140
0.5
141
12.0
290
     0
  0
SCALE
  5
63
102
{ACAD_REACTORS
330
47
102
}
330
47
100
AcDbScale
 70
     0
300
3/4" = 1'-0"
140
0.75
141
12.0
290
     0
  0
SCALE
  5
64
102
{ACAD_REACTORS
330
47
102
}
330
47
100
AcDbScale
 70
     0
300
1" = 1'-0"
140
1.0
141
12.0
290
     0
  0
SCALE
  5
65
102
{ACAD_REACTORS
330
47
102
}
330
47
100
AcDbScale
 70
     0
300
1-1/2" = 1'-0"
140
1.5
141
12.0
290
     0
  0
SCALE
  5
66
102
{ACAD_REACTORS
330
47
102
}
330
47
100
AcDbScale
 70
     0
300
3" = 1'-0"
140
3.0
141
12.0
290
     0
  0
SCALE
  5
67
102
{ACAD_REACTORS
330
47
102
}
330
47
100
AcDbScale
 70
     0
300
6" = 1'-0"
140
6.0
141
12.0
290
     0
  0
SCALE
  5
68
102
{ACAD_REACTORS
330
47
102
}
330
47
100
AcDbScale
 70
     0
300
1'-0" = 1'-0"
140
12.0
141
12.0
290
     0
  0
ENDSEC
  0
EOF
